                                                                        S      1
,,,6H210400,22HAutodesk Inventor 2021,7Hunknown,32,38,7,99,15,,1.,2,2HMMG      1
,1,0.08,15H20221006.092748,0.01,10000.,13HMrówczyńska,,11,0,15H2013120G      2
8.000000;                                                               G      3
     186       1                                                00000000D      1
     186            -105       1       0                               0D      2
     514       2                                                00010000D      3
     514                       1       1                               0D      4
     510       3                                                00010000D      5
     510            -105       1       1                               0D      6
     510       4                                                00010000D      7
     510            -105       1       1                               0D      8
     510       5                                                00010000D      9
     510            -105       1       1                               0D     10
     510       6                                                00010000D     11
     510            -105       1       1                               0D     12
     510       7                                                00010000D     13
     510            -105       1       1                               0D     14
     510       8                                                00010000D     15
     510            -105       1       1                               0D     16
     510       9                                                00010000D     17
     510            -105       1       1                               0D     18
     510      10                                                00010000D     19
     510            -105       1       1                               0D     20
     508      11                                                00010000D     21
     508                       1       1                               0D     22
     508      12                                                00010000D     23
     508                       2       1                               0D     24
     508      14                                                00010000D     25
     508                       2       1                               0D     26
     508      16                                                00010000D     27
     508                       1       1                               0D     28
     508      17                                                00010000D     29
     508                       1       1                               0D     30
     508      18                                                00010000D     31
     508                       1       1                               0D     32
     508      19                                                00010000D     33
     508                       1       1                               0D     34
     508      20                                                00010000D     35
     508                       1       1                               0D     36
     508      21                                                00010000D     37
     508                       1       1                               0D     38
     508      22                                                00010000D     39
     508                       1       1                               0D     40
     126      23                                                00010000D     41
     126       0              10       0                               0D     42
     126      33                                                00010000D     43
     126       0               3       0                               0D     44
     126      36                                                00010000D     45
     126       0               5       0                               0D     46
     126      41                                                00010000D     47
     126       0               7       0                               0D     48
     126      48                                                00010000D     49
     126       0               6       0                               0D     50
     126      54                                                00010000D     51
     126       0               6       0                               0D     52
     126      60                                                00010000D     53
     126       0               6       0                               0D     54
     126      66                                                00010000D     55
     126       0               4       0                               0D     56
     126      70                                                00010000D     57
     126       0               5       0                               0D     58
     126      75                                                00010000D     59
     126       0               7       0                               0D     60
     126      82                                                00010000D     61
     126       0               6       0                               0D     62
     126      88                                                00010000D     63
     126       0               6       0                               0D     64
     126      94                                                00010000D     65
     126       0               2       0                               0D     66
     126      96                                                00010000D     67
     126       0               2       0                               0D     68
     126      98                                                00010000D     69
     126       0               2       0                               0D     70
     126     100                                                00010000D     71
     126       0               2       0                               0D     72
     126     102                                                00010000D     73
     126       0               2       0                               0D     74
     126     104                                                00010000D     75
     126       0               2       0                               0D     76
     126     106                                                00010000D     77
     126       0               2       0                               0D     78
     126     108                                                00010000D     79
     126       0               2       0                               0D     80
     128     110                                                00010000D     81
     128       0    -105      13       0                               0D     82
     128     123                                                00010000D     83
     128       0    -105      18       0                               0D     84
     128     141                                                00010000D     85
     128       0    -105       5       0                               0D     86
     128     146                                                00010000D     87
     128       0    -105       5       0                               0D     88
     128     151                                                00010000D     89
     128       0    -105       5       0                               0D     90
     128     156                                                00010000D     91
     128       0    -105       5       0                               0D     92
     128     161                                                00010000D     93
     128       0    -105       3       0                               0D     94
     128     164                                                00010000D     95
     128       0    -105       3       0                               0D     96
     502     167                                                00010000D     97
     502                       5       1                               0D     98
     504     172                                                00010001D     99
     504                       5       1                               0D    100
     406     177                                                00000000D    101
     406                       1      15                               0D    102
     314     178                                                00000200D    103
     314                       1       0                               0D    104
     314     179                                                00000200D    105
     314                       1       0                               0D    106
186,3,1,0,0,1,101;                                                     1P      1
514,8,5,1,7,1,9,1,11,1,13,1,15,1,17,1,19,1;                            3P      2
510,81,1,1,21;                                                         5P      3
510,83,1,1,23;                                                         7P      4
510,85,1,1,25;                                                         9P      5
510,87,1,1,27;                                                        11P      6
510,89,1,1,29;                                                        13P      7
510,91,1,1,31;                                                        15P      8
510,93,2,1,33,35;                                                     17P      9
510,95,2,1,37,39;                                                     19P     10
508,5,0,99,1,0,0,0,99,2,1,0,0,99,3,0,0,0,99,4,0,0,0,99,2,0,0;         21P     11
508,9,0,99,5,0,0,0,99,6,0,0,0,99,7,0,0,0,99,8,1,0,0,99,9,0,0,0,       23P     12
99,10,0,0,0,99,8,0,0,0,99,11,0,0,0,99,12,0,0;                         23P     13
508,5,0,99,11,1,0,0,99,7,1,0,0,99,13,0,0,0,99,14,0,0,0,99,15,1,       25P     14
0;                                                                    25P     15
508,4,0,99,6,1,0,0,99,16,0,0,0,99,17,0,0,0,99,13,1,0;                 27P     16
508,4,0,99,5,1,0,0,99,18,0,0,0,99,19,0,0,0,99,16,1,0;                 29P     17
508,4,0,99,12,1,0,0,99,15,0,0,0,99,20,0,0,0,99,18,1,0;                31P     18
508,2,0,99,9,1,0,0,99,10,1,0;                                         33P     19
508,2,0,99,3,1,0,0,99,4,1,0;                                          35P     20
508,4,0,99,17,1,0,0,99,19,1,0,0,99,20,1,0,0,99,14,1,0;                37P     21
508,1,0,99,1,1,0;                                                     39P     22
126,8,2,0,1,0,0,-3.14159265358979,-3.14159265358979,                  41P     23
-3.14159265358979,-1.5707963267949,-1.5707963267949,0.,0.,            41P     24
1.5707963267949,1.5707963267949,3.14159265358979,                     41P     25
3.14159265358979,3.14159265358979,1.,0.707106781186548,1.,            41P     26
0.707106781186548,1.,0.707106781186548,1.,0.707106781186548,1.,       41P     27
0.,-1.98515246141786D-16,1.621,0.,-1.621,1.621,0.,-1.621,             41P     28
-9.9257623070893D-17,0.,-1.621,-1.621,0.,0.,-1.621,0.,1.621,          41P     29
-1.621,0.,1.621,-9.9257623070893D-17,0.,1.621,1.621,0.,               41P     30
1.98515246141786D-16,1.621,-3.14159265358979,3.14159265358979,        41P     31
0.,0.,0.;                                                             41P     32
126,1,1,0,0,1,0,8.2685245389736,8.2685245389736,                      43P     33
11.9699434162099,11.9699434162099,1.,1.,0.,0.,1.621,6.,0.,1.621,      43P     34
8.2685245389736,11.9699434162099,0.,0.,0.;                            43P     35
126,4,2,0,0,0,0,0.,0.,0.,1.5707963267949,1.5707963267949,             45P     36
3.14159265358979,3.14159265358979,3.14159265358979,1.,                45P     37
0.707106781186548,1.,0.707106781186548,1.,6.,0.,-1.621,6.,            45P     38
-1.621,-1.621,6.,-1.621,-9.9257623070893D-17,6.,-1.621,1.621,6.,      45P     39
-1.98515246141786D-16,1.621,0.,3.14159265358979,0.,0.,0.;             45P     40
126,4,2,0,0,0,0,3.14159265358979,3.14159265358979,                    47P     41
3.14159265358979,4.71238898038469,4.71238898038469,                   47P     42
6.28318530717959,6.28318530717959,6.28318530717959,1.,                47P     43
0.707106781186548,1.,0.707106781186547,1.,6.,                         47P     44
-1.98515246141786D-16,1.621,6.,1.621,1.621,6.,1.621,                  47P     45
2.97772869212679D-16,6.,1.621,-1.621,6.,3.97030492283572D-16,         47P     46
-1.621,3.14159265358979,6.28318530717959,0.,0.,0.;                    47P     47
126,2,2,0,0,0,0,0.0587433032615019,0.0587433032615019,                49P     48
0.0587433032615019,1.53342502954415,1.53342502954415,                 49P     49
1.53342502954415,1.03553390593274,1.46446609406627,                   49P     50
1.03553390593472,1.60761184457488,6.5,6.5,6.20380592224986,6.5,       49P     51
-3.1890046159333D-11,1.60761184457488,6.5,-6.5,                       49P     52
0.0587433032615019,1.53342502954415,0.,0.,0.;                         49P     53
126,2,2,0,0,0,0,0.0587433032615019,0.0587433032615019,                51P     54
0.0587433032615019,1.53342502954415,1.53342502954415,                 51P     55
1.53342502954415,1.03553390593274,1.46446609406627,                   51P     56
1.03553390593472,1.60761184457488,-6.5,6.5,6.20380592224986,          51P     57
3.18911563823576D-11,6.5,1.60761184457488,6.5,6.5,                    51P     58
0.0587433032615019,1.53342502954415,0.,0.,0.;                         51P     59
126,2,2,0,0,0,0,0.796084166400398,0.796084166400398,                  53P     60
0.796084166400398,1.53342502954415,1.53342502954415,                  53P     61
1.53342502954415,1.25,1.2500000000012,1.03553390593472,               53P     62
4.29999999997616,-6.5,3.52651241541935D-12,4.29999999998244,          53P     63
-6.5,2.6923881554375,1.60761184457488,-6.5,6.5,                       53P     64
0.796084166400398,1.53342502954415,0.,0.,0.;                          53P     65
126,1,1,0,0,1,0,0.15065505303405,0.15065505303405,                    55P     66
0.481124201632084,0.481124201632084,1.,1.,4.29999999998242,           55P     67
-6.50000000000566,1.76325620770967D-12,6.,-4.8,0.,                    55P     68
0.15065505303405,0.481124201632084,0.,0.,0.;                          55P     69
126,4,2,0,0,0,0,0.,0.,0.,1.5707963267949,1.5707963267949,             57P     70
3.14159265358979,3.14159265358979,3.14159265358979,1.,                57P     71
0.707106781186548,1.,0.707106781186548,1.,6.,4.8,0.,6.,4.8,4.8,       57P     72
6.,2.93915231795365D-16,4.8,6.,-4.8,4.8,6.,-4.8,                      57P     73
5.87830463590729D-16,0.,3.14159265358979,0.,0.,0.;                    57P     74
126,4,2,0,0,0,0,3.14159265358979,3.14159265358979,                    59P     75
3.14159265358979,4.71238898038469,4.71238898038469,                   59P     76
6.28318530717959,6.28318530717959,6.28318530717959,1.,                59P     77
0.707106781186548,1.,0.707106781186548,1.,6.,-4.8,                    59P     78
5.87830463590729D-16,6.,-4.8,-4.8,6.,-8.81745695386094D-16,-4.8,      59P     79
6.,4.8,-4.8,6.,4.8,-1.17566092718146D-15,3.14159265358979,            59P     80
6.28318530717959,0.,0.,0.;                                            59P     81
126,2,2,0,0,0,0,0.0587433032615019,0.0587433032615019,                61P     82
0.0587433032615019,0.796084166400398,0.796084166400398,               61P     83
0.796084166400398,1.03553390593274,1.2499999999988,1.25,              61P     84
1.60761184457488,-6.5,-6.5,4.29999999996988,-6.5,                     61P     85
-2.69238815541789,4.29999999997616,-6.5,3.52651241541935D-12,         61P     86
0.0587433032615019,0.796084166400398,0.,0.,0.;                        61P     87
126,2,2,0,0,0,0,0.0587433032615019,0.0587433032615019,                63P     88
0.0587433032615019,1.53342502954415,1.53342502954415,                 63P     89
1.53342502954415,1.03553390593274,1.46446609406627,                   63P     90
1.03553390593472,1.60761184457488,6.5,-6.5,6.20380592224986,          63P     91
-3.18867154902591D-11,-6.5,1.60761184457488,-6.5,-6.5,                63P     92
0.0587433032615019,1.53342502954415,0.,0.,0.;                         63P     93
126,1,1,0,0,1,0,0.,0.,1.,1.,1.,1.,0.,-6.5,6.5,1.60761184457488,       65P     94
-6.5,6.5,0.,1.,0.,0.,0.;                                              65P     95
126,1,1,0,0,1,0,0.,0.,1.,1.,1.,1.,0.,-6.5,-6.5,0.,-6.5,6.5,0.,        67P     96
1.,0.,0.,0.;                                                          67P     97
126,1,1,0,0,1,0,0.,0.,1.,1.,1.,1.,0.,-6.5,-6.5,1.60761184457488,      69P     98
-6.5,-6.5,0.,1.,0.,0.,0.;                                             69P     99
126,1,1,0,0,1,0,0.,0.,1.,1.,1.,1.,0.,6.5,6.5,1.60761184457488,        71P    100
6.5,6.5,0.,1.,0.,0.,0.;                                               71P    101
126,1,1,0,0,1,0,0.,0.,1.,1.,1.,1.,0.,-6.5,6.5,0.,6.5,6.5,0.,1.,       73P    102
0.,0.,0.;                                                             73P    103
126,1,1,0,0,1,0,0.,0.,1.,1.,1.,1.,0.,6.5,-6.5,1.60761184457488,       75P    104
6.5,-6.5,0.,1.,0.,0.,0.;                                              75P    105
126,1,1,0,0,1,0,0.,0.,1.,1.,1.,1.,0.,6.5,6.5,0.,6.5,-6.5,0.,1.,       77P    106
0.,0.,0.;                                                             77P    107
126,1,1,0,0,1,0,0.,0.,1.,1.,1.,1.,0.,6.5,-6.5,0.,-6.5,-6.5,0.,        79P    108
1.,0.,0.,0.;                                                          79P    109
128,1,8,1,2,0,1,0,0,1,8.2685245389736,8.2685245389736,                81P    110
11.9699434162099,11.9699434162099,-3.14159265358979,                  81P    111
-3.14159265358979,-3.14159265358979,-1.5707963267949,                 81P    112
-1.5707963267949,0.,0.,1.5707963267949,1.5707963267949,               81P    113
3.14159265358979,3.14159265358979,3.14159265358979,1.,1.,             81P    114
0.707106781186548,0.707106781186548,1.,1.,0.707106781186548,          81P    115
0.707106781186548,1.,1.,0.707106781186548,0.707106781186548,1.,       81P    116
1.,0.707106781186548,0.707106781186548,1.,1.,0.,0.,1.621,6.,0.,       81P    117
1.621,0.,-1.621,1.621,6.,-1.621,1.621,0.,-1.621,0.,6.,-1.621,0.,      81P    118
0.,-1.621,-1.621,6.,-1.621,-1.621,0.,0.,-1.621,6.,0.,-1.621,0.,       81P    119
1.621,-1.621,6.,1.621,-1.621,0.,1.621,0.,6.,1.621,0.,0.,1.621,        81P    120
1.621,6.,1.621,1.621,0.,0.,1.621,6.,0.,1.621,8.2685245389736,         81P    121
11.9699434162099,-3.14159265358979,3.14159265358979;                  81P    122
128,1,8,1,2,0,1,0,0,1,-0.481124201632084,-0.481124201632084,          83P    123
0.372728018382919,0.372728018382919,-3.14159265358979,                83P    124
-3.14159265358979,-3.14159265358979,-1.5707963267949,                 83P    125
-1.5707963267949,0.,0.,1.5707963267949,1.5707963267949,               83P    126
3.14159265358979,3.14159265358979,3.14159265358979,1.,1.,             83P    127
0.707106781186548,0.707106781186548,1.,1.,0.707106781186548,          83P    128
0.707106781186548,1.,1.,0.707106781186548,0.707106781186548,1.,       83P    129
1.,0.707106781186548,0.707106781186548,1.,1.,1.60761184457488,        83P    130
-9.19238815542512,0.,6.,-4.8,0.,1.60761184457488,                     83P    131
-9.19238815542512,9.19238815542512,6.,-4.8,4.8,1.60761184457488,      83P    132
0.,9.19238815542512,6.,0.,4.8,1.60761184457488,9.19238815542512,      83P    133
9.19238815542512,6.,4.8,4.8,1.60761184457488,9.19238815542512,        83P    134
0.,6.,4.8,0.,1.60761184457488,9.19238815542512,                       83P    135
-9.19238815542512,6.,4.8,-4.8,1.60761184457488,0.,                    83P    136
-9.19238815542512,6.,0.,-4.8,1.60761184457488,-9.19238815542512,      83P    137
-9.19238815542512,6.,-4.8,-4.8,1.60761184457488,                      83P    138
-9.19238815542512,0.,6.,-4.8,0.,-0.481124201632084,                   83P    139
0.372728018382919,-3.14159265358979,3.14159265358979;                 83P    140
128,1,1,1,1,0,0,1,0,0,-13.001,-13.001,0.000999999999997669,           85P    141
0.000999999999997669,-0.001,-0.001,4.30099999998244,                  85P    142
4.30099999998244,1.,1.,1.,1.,-0.001,-6.5,6.501,-0.001,-6.5,           85P    143
-6.501,4.30099999998244,-6.5,6.501,4.30099999998244,-6.5,-6.501,      85P    144
-13.001,0.000999999999997669,-0.001,4.30099999998244;                 85P    145
128,1,1,1,1,0,0,1,0,0,-0.001,-0.001,6.20480592224986,                 87P    146
6.20480592224986,-0.001,-0.001,13.001,13.001,1.,1.,1.,1.,-0.001,      87P    147
-6.501,6.5,6.20480592224986,-6.501,6.5,-0.001,6.501,6.5,              87P    148
6.20480592224986,6.501,6.5,-0.001,6.20480592224986,-0.001,            87P    149
13.001;                                                               87P    150
128,1,1,1,1,0,0,1,0,0,-13.001,-13.001,0.000999999999997669,           89P    151
0.000999999999997669,-0.001,-0.001,6.20480592224986,                  89P    152
6.20480592224986,1.,1.,1.,1.,-0.001,6.5,-6.501,-0.001,6.5,6.501,      89P    153
6.20480592224986,6.5,-6.501,6.20480592224986,6.5,6.501,-13.001,       89P    154
0.000999999999997669,-0.001,6.20480592224986;                         89P    155
128,1,1,1,1,0,0,1,0,0,-6.20480592224986,-6.20480592224986,            91P    156
0.00100000000000033,0.00100000000000033,-13.001,-13.001,0.001,        91P    157
0.001,1.,1.,1.,1.,6.20480592224986,-6.501,-6.5,-0.001,-6.501,         91P    158
-6.5,6.20480592224986,6.501,-6.5,-0.00099999999999989,6.501,          91P    159
-6.5,-6.20480592224986,0.00100000000000033,-13.001,0.001;             91P    160
128,1,1,1,1,0,0,1,0,0,-4.801,-4.801,4.801,4.801,-4.801,-4.801,        93P    161
4.801,4.801,1.,1.,1.,1.,6.,-4.801,4.801,6.,-4.801,-4.801,6.,          93P    162
4.801,4.801,6.,4.801,-4.801,-4.801,4.801,-4.801,4.801;                93P    163
128,1,1,1,1,0,0,1,0,0,-6.501,-6.501,6.501,6.501,-6.501,-6.501,        95P    164
6.501,6.501,1.,1.,1.,1.,0.,-6.501,-6.501,0.,-6.501,6.501,0.,          95P    165
6.501,-6.501,0.,6.501,6.501,-6.501,6.501,-6.501,6.501;                95P    166
502,14,0.,-1.98515246141786D-16,1.621,6.,0.,1.621,6.,0.,-1.621,       97P    167
1.60761184457488,6.5,6.5,1.60761184457488,6.5,-6.5,                   97P    168
1.60761184457488,-6.5,6.5,4.29999999998242,-6.50000000000566,         97P    169
1.76325620770967D-12,6.,-4.8,0.,6.,4.8,0.,1.60761184457488,-6.5,      97P    170
-6.5,0.,-6.5,6.5,0.,-6.5,-6.5,0.,6.5,6.5,0.,6.5,-6.5;                 97P    171
504,20,41,97,1,97,1,43,97,1,97,2,45,97,3,97,2,47,97,2,97,3,49,        99P    172
97,4,97,5,51,97,6,97,4,53,97,7,97,6,55,97,7,97,8,57,97,9,97,8,        99P    173
59,97,8,97,9,61,97,10,97,7,63,97,5,97,10,65,97,11,97,6,67,97,12,      99P    174
97,11,69,97,12,97,10,71,97,13,97,4,73,97,11,97,13,75,97,14,97,5,      99P    175
77,97,13,97,14,79,97,14,97,12;                                        99P    176
406,1,7HBryła1;                                                     101P    177
314,74.9019607843137,74.9019607843137,74.9019607843137,;             103P    178
314,63.921568627451,63.921568627451,68.6274509803922,;               105P    179
S      1G      3D    106P    179                                        T      1
