                                                                        S      1
,,,6H210000,22HAutodesk Inventor 2021,7Hunknown,32,38,7,99,15,,1.,2,2HMMG      1
,1,0.08,15H20220920.131647,0.01,10000.,13HMrówczyńska,,11,0,15H2020030G      2
5.000000;                                                               G      3
     186       1                                                00000000D      1
     186            -119       1       0                               0D      2
     514       2                                                00010000D      3
     514                       1       1                               0D      4
     510       3                                                00010000D      5
     510            -119       1       1                               0D      6
     510       4                                                00010000D      7
     510            -119       1       1                               0D      8
     510       5                                                00010000D      9
     510            -119       1       1                               0D     10
     510       6                                                00010000D     11
     510            -119       1       1                               0D     12
     510       7                                                00010000D     13
     510            -119       1       1                               0D     14
     510       8                                                00010000D     15
     510            -119       1       1                               0D     16
     510       9                                                00010000D     17
     510            -119       1       1                               0D     18
     510      10                                                00010000D     19
     510            -119       1       1                               0D     20
     510      11                                                00010000D     21
     510            -119       1       1                               0D     22
     510      12                                                00010000D     23
     510            -119       1       1                               0D     24
     508      13                                                00010000D     25
     508                       1       1                               0D     26
     508      14                                                00010000D     27
     508                       1       1                               0D     28
     508      15                                                00010000D     29
     508                       1       1                               0D     30
     508      16                                                00010000D     31
     508                       1       1                               0D     32
     508      17                                                00010000D     33
     508                       1       1                               0D     34
     508      18                                                00010000D     35
     508                       1       1                               0D     36
     508      19                                                00010000D     37
     508                       1       1                               0D     38
     508      20                                                00010000D     39
     508                       1       1                               0D     40
     508      21                                                00010000D     41
     508                       2       1                               0D     42
     508      23                                                00010000D     43
     508                       2       1                               0D     44
     126      25                                                00010000D     45
     126       0               3       0                               0D     46
     126      28                                                00010000D     47
     126       0               3       0                               0D     48
     126      31                                                00010000D     49
     126       0               3       0                               0D     50
     126      34                                                00010000D     51
     126       0               2       0                               0D     52
     126      36                                                00010000D     53
     126       0               6       0                               0D     54
     126      42                                                00010000D     55
     126       0               2       0                               0D     56
     126      44                                                00010000D     57
     126       0               6       0                               0D     58
     126      50                                                00010000D     59
     126       0               3       0                               0D     60
     126      53                                                00010000D     61
     126       0               2       0                               0D     62
     126      55                                                00010000D     63
     126       0               3       0                               0D     64
     126      58                                                00010000D     65
     126       0               2       0                               0D     66
     126      60                                                00010000D     67
     126       0               2       0                               0D     68
     126      62                                                00010000D     69
     126       0               2       0                               0D     70
     126      64                                                00010000D     71
     126       0               3       0                               0D     72
     126      67                                                00010000D     73
     126       0               2       0                               0D     74
     126      69                                                00010000D     75
     126       0               3       0                               0D     76
     126      72                                                00010000D     77
     126       0               2       0                               0D     78
     126      74                                                00010000D     79
     126       0               2       0                               0D     80
     126      76                                                00010000D     81
     126       0               2       0                               0D     82
     126      78                                                00010000D     83
     126       0               4       0                               0D     84
     126      82                                                00010000D     85
     126       0               3       0                               0D     86
     126      85                                                00010000D     87
     126       0               3       0                               0D     88
     126      88                                                00010000D     89
     126       0               4       0                               0D     90
     126      92                                                00010000D     91
     126       0               4       0                               0D     92
     128      96                                                00010000D     93
     128       0    -119       6       0                               0D     94
     128     102                                                00010000D     95
     128       0    -119       9       0                               0D     96
     128     111                                                00010000D     97
     128       0    -119       4       0                               0D     98
     128     115                                                00010000D     99
     128       0    -119       4       0                               0D    100
     128     119                                                00010000D    101
     128       0    -119       5       0                               0D    102
     128     124                                                00010000D    103
     128       0    -119       5       0                               0D    104
     128     129                                                00010000D    105
     128       0    -119       7       0                               0D    106
     128     136                                                00010000D    107
     128       0    -119       8       0                               0D    108
     128     144                                                00010000D    109
     128       0    -119       5       0                               0D    110
     128     149                                                00010000D    111
     128       0    -119       4       0                               0D    112
     502     153                                                00010000D    113
     502                       8       1                               0D    114
     504     161                                                00010001D    115
     504                       7       1                               0D    116
     406     168                                                00000000D    117
     406                       1      15                               0D    118
     314     169                                                00000200D    119
     314                       1       0                               0D    120
186,3,1,0,0,1,117;                                                     1P      1
514,10,5,1,7,1,9,1,11,1,13,1,15,1,17,1,19,1,21,1,23,1;                 3P      2
510,93,1,1,25;                                                         5P      3
510,95,1,1,27;                                                         7P      4
510,97,1,1,29;                                                         9P      5
510,99,1,1,31;                                                        11P      6
510,101,1,1,33;                                                       13P      7
510,103,1,1,35;                                                       15P      8
510,105,1,1,37;                                                       17P      9
510,107,1,1,39;                                                       19P     10
510,109,1,1,41;                                                       21P     11
510,111,1,1,43;                                                       23P     12
508,4,0,115,1,1,0,0,115,2,0,0,0,115,3,0,0,0,115,4,1,0;                25P     13
508,4,0,115,5,1,0,0,115,6,0,0,0,115,7,0,0,0,115,2,1,0;                27P     14
508,4,0,115,8,1,0,0,115,9,0,0,0,115,10,0,0,0,115,6,1,0;               29P     15
508,4,0,115,11,1,0,0,115,12,0,0,0,115,13,0,0,0,115,9,1,0;             31P     16
508,4,0,115,14,1,0,0,115,15,0,0,0,115,16,0,0,0,115,12,1,0;            33P     17
508,4,0,115,17,1,0,0,115,18,0,0,0,115,19,0,0,0,115,15,1,0;            35P     18
508,4,0,115,20,1,0,0,115,21,0,0,0,115,22,0,0,0,115,18,1,0;            37P     19
508,4,0,115,23,1,0,0,115,4,0,0,0,115,24,0,0,0,115,21,1,0;             39P     20
508,8,0,115,14,0,0,0,115,11,0,0,0,115,8,0,0,0,115,5,0,0,0,115,1,      41P     21
0,0,0,115,23,0,0,0,115,20,0,0,0,115,17,0,0;                           41P     22
508,8,0,115,16,1,0,0,115,19,1,0,0,115,22,1,0,0,115,24,1,0,0,115,      43P     23
3,1,0,0,115,7,1,0,0,115,10,1,0,0,115,13,1,0;                          43P     24
126,1,1,0,0,1,0,-0.125,-0.125,0.374999999999999,                      45P     25
0.374999999999999,1.,1.,2.5,-6.7,100.,-2.49999999999999,              45P     26
-6.70000000000001,100.,-0.125,0.374999999999999,0.,0.,0.;             45P     27
126,1,1,0,0,1,0,0.,0.,10.,10.,1.,1.,-2.49999999999999,                47P     28
-6.70000000000001,0.,-2.49999999999999,-6.70000000000001,100.,        47P     29
0.,10.,0.,0.,0.;                                                      47P     30
126,1,1,0,0,1,0,-0.125,-0.125,0.374999999999999,                      49P     31
0.374999999999999,1.,1.,2.5,-6.7,0.,-2.49999999999999,                49P     32
-6.70000000000001,0.,-0.125,0.374999999999999,0.,0.,0.;               49P     33
126,1,1,0,0,1,0,0.,0.,10.,10.,1.,1.,2.5,-6.7,0.,2.5,-6.7,100.,        51P     34
0.,10.,0.,0.,0.;                                                      51P     35
126,2,2,0,0,0,0,-0.399110767410574,-0.399110767410574,                53P     36
-0.399110767410574,5.54423442767441D-17,5.54423442767441D-17,         53P     37
5.54423442767441D-17,1.,0.980154812588495,1.,-2.49999999999999,       53P     38
-6.7,100.,-5.30252808988763,-3.77977528089888,100.,                   53P     39
-6.74999999999999,3.33066907387547D-15,100.,-0.399110767410574,       53P     40
5.54423442767441D-17,0.,0.,0.;                                        53P     41
126,1,1,0,0,1,0,0.,0.,10.,10.,1.,1.,-6.75,0.,0.,-6.75,0.,100.,        55P     42
0.,10.,0.,0.,0.;                                                      55P     43
126,2,2,0,0,0,0,-0.399110767410574,-0.399110767410574,                57P     44
-0.399110767410574,5.54423442767441D-17,5.54423442767441D-17,         57P     45
5.54423442767441D-17,1.,0.980154812588495,1.,-2.49999999999999,       57P     46
-6.7,0.,-5.30252808988763,-3.77977528089888,0.,                       57P     47
-6.74999999999999,3.33066907387547D-15,0.,-0.399110767410574,         57P     48
5.54423442767441D-17,0.,0.,0.;                                        57P     49
126,1,1,0,0,1,0,-0.3375,-0.3375,-0.0525000000000004,                  59P     50
-0.0525000000000004,1.,1.,-6.75,0.,100.,-3.90000000000001,0.,         59P     51
100.,-0.3375,-0.0525000000000004,0.,0.,0.;                            59P     52
126,1,1,0,0,1,0,0.,0.,10.,10.,1.,1.,-3.90000000000001,0.,0.,          61P     53
-3.90000000000001,0.,100.,0.,10.,0.,0.,0.;                            61P     54
126,1,1,0,0,1,0,-0.3375,-0.3375,-0.0525000000000004,                  63P     55
-0.0525000000000004,1.,1.,-6.75,0.,0.,-3.90000000000001,0.,0.,        63P     56
-0.3375,-0.0525000000000004,0.,0.,0.;                                 63P     57
126,1,1,0,0,1,0,0.155,0.155,0.205,0.205,1.,1.,-3.90000000000001,      65P     58
0.,100.,-3.90000000000001,0.5,100.,0.155,0.205,0.,0.,0.;              65P     59
126,1,1,0,0,1,0,0.,0.,10.,10.,1.,1.,-3.90000000000001,0.5,0.,         67P     60
-3.90000000000001,0.5,100.,0.,10.,0.,0.,0.;                           67P     61
126,1,1,0,0,1,0,0.155,0.155,0.205,0.205,1.,1.,-3.90000000000001,      69P     62
0.,0.,-3.90000000000001,0.5,0.,0.155,0.205,0.,0.,0.;                  69P     63
126,1,1,0,0,1,0,-0.195,-0.195,0.585000000000001,                      71P     64
0.585000000000001,1.,1.,-3.90000000000001,0.5,100.,3.9,0.5,100.,      71P     65
-0.195,0.585000000000001,0.,0.,0.;                                    71P     66
126,1,1,0,0,1,0,0.,0.,10.,10.,1.,1.,3.90000000000001,0.5,0.,          73P     67
3.90000000000001,0.5,100.,0.,10.,0.,0.,0.;                            73P     68
126,1,1,0,0,1,0,-0.195,-0.195,0.585000000000001,                      75P     69
0.585000000000001,1.,1.,-3.90000000000001,0.5,0.,3.9,0.5,0.,          75P     70
-0.195,0.585000000000001,0.,0.,0.;                                    75P     71
126,1,1,0,0,1,0,-0.18,-0.18,-0.13,-0.13,1.,1.,3.90000000000001,       77P     72
0.5,100.,3.90000000000001,0.,100.,-0.18,-0.13,0.,0.,0.;               77P     73
126,1,1,0,0,1,0,0.,0.,10.,10.,1.,1.,3.90000000000001,0.,0.,           79P     74
3.90000000000001,0.,100.,0.,10.,0.,0.,0.;                             79P     75
126,1,1,0,0,1,0,-0.18,-0.18,-0.13,-0.13,1.,1.,3.90000000000001,       81P     76
0.5,0.,3.90000000000001,0.,0.,-0.18,-0.13,0.,0.,0.;                   81P     77
126,1,1,0,0,1,0,0.195,0.195,0.479999999999999,0.479999999999999,      83P     78
1.,1.,3.90000000000001,9.64141047700569D-17,100.,                     83P     79
6.74999999999999,-1.23380837710317D-14,100.,0.195,                    83P     80
0.479999999999999,0.,0.,0.;                                           83P     81
126,1,1,0,0,1,0,0.,0.,10.,10.,1.,1.,6.74999999999999,                 85P     82
-1.24344978758018D-14,0.,6.74999999999999,-1.24344978758018D-14,      85P     83
100.,0.,10.,0.,0.,0.;                                                 85P     84
126,1,1,0,0,1,0,0.195,0.195,0.479999999999999,0.479999999999999,      87P     85
1.,1.,3.90000000000001,9.64141047700569D-17,0.,6.74999999999999,      87P     86
-1.23380837710317D-14,0.,0.195,0.479999999999999,0.,0.,0.;            87P     87
126,2,2,0,0,0,0,-0.399110767410575,-0.399110767410575,                89P     88
-0.399110767410575,0.,0.,0.,1.,0.980154812588485,1.,6.75,             89P     89
-1.11022302462516D-14,100.,5.30252808988764,-3.77977528089889,        89P     90
100.,2.5,-6.7,100.,-0.399110767410575,0.,0.,0.,0.;                    89P     91
126,2,2,0,0,0,0,-0.399110767410575,-0.399110767410575,                91P     92
-0.399110767410575,0.,0.,0.,1.,0.980154812588485,1.,6.75,             91P     93
-1.11022302462516D-14,0.,5.30252808988764,-3.77977528089889,0.,       91P     94
2.5,-6.7,0.,-0.399110767410575,0.,0.,0.,0.;                           91P     95
128,1,1,1,1,0,0,1,0,0,-10.001,-10.001,0.000999999999999446,           93P     96
0.000999999999999446,-0.500999999999999,-0.500999999999999,           93P     97
0.001,0.001,1.,1.,1.,1.,-2.50999999999999,-6.70000000000001,          93P     98
100.01,-2.50999999999999,-6.70000000000001,-0.01,2.51,-6.7,           93P     99
100.01,2.51,-6.7,-0.00999999999999446,-10.001,                        93P    100
0.000999999999999446,-0.500999999999999,0.001;                        93P    101
128,1,2,1,2,0,0,0,0,0,0.,0.,4.99690024940754,4.99690024940754,        95P    102
-5.54767370864744D-17,-5.54767370864744D-17,                          95P    103
-5.54767370864744D-17,0.399110767410574,0.399110767410574,            95P    104
0.399110767410574,1.,1.,0.980154812588495,0.980154812588495,1.,       95P    105
1.,-6.74999999999999,2.22044604925031D-15,100.,                       95P    106
-6.74999999999999,2.22044604925031D-15,0.,-5.30252808988763,          95P    107
-3.77977528089888,100.,-5.30252808988763,-3.77977528089888,0.,        95P    108
-2.49999999999999,-6.7,100.,-2.49999999999999,-6.7,0.,0.,             95P    109
4.99690024940754,-5.54767370864744D-17,0.399110767410574;             95P    110
128,1,1,1,1,0,0,1,0,0,-0.001,-0.001,10.001,10.001,-0.001,-0.001,      97P    111
0.286,0.286,1.,1.,1.,1.,-6.76,0.,-0.01,-6.76,0.,100.01,               97P    112
-3.89000000000001,0.,-0.01,-3.89000000000001,0.,100.01,-0.001,        97P    113
10.001,-0.001,0.286;                                                  97P    114
128,1,1,1,1,0,0,1,0,0,-0.001,-0.001,10.001,10.001,-0.001,-0.001,      99P    115
0.051,0.051,1.,1.,1.,1.,-3.90000000000001,-0.01,-0.01,                99P    116
-3.90000000000001,-0.01,100.01,-3.90000000000001,0.51,-0.01,          99P    117
-3.90000000000001,0.51,100.01,-0.001,10.001,-0.001,0.051;             99P    118
128,1,1,1,1,0,0,1,0,0,-0.001,-0.001,10.001,10.001,-0.001,-0.001,     101P    119
0.781000000000001,0.781000000000001,1.,1.,1.,1.,                     101P    120
-3.91000000000001,0.5,-0.01,-3.91000000000001,0.5,100.01,            101P    121
3.91000000000001,0.5,-0.01,3.91000000000001,0.5,100.01,-0.001,       101P    122
10.001,-0.001,0.781000000000001;                                     101P    123
128,1,1,1,1,0,0,1,0,0,-10.001,-10.001,0.000999999999999446,          103P    124
0.000999999999999446,-0.051,-0.051,0.001,0.001,1.,1.,1.,1.,          103P    125
3.90000000000001,-0.01,100.01,3.90000000000001,-0.01,-0.01,          103P    126
3.90000000000001,0.51,100.01,3.90000000000001,0.51,                  103P    127
-0.00999999999999446,-10.001,0.000999999999999446,-0.051,0.001;      103P    128
128,1,1,1,1,0,0,1,0,0,-0.001,-0.001,10.001,10.001,-0.001,-0.001,     105P    129
0.285999999999999,0.285999999999999,1.,1.,1.,1.,                     105P    130
3.89000000000001,4.36298171080765D-17,-0.01,3.89000000000001,        105P    131
4.36298171080765D-17,100.01,6.75999999999999,                        105P    132
-1.24781276929098D-14,-0.01,6.75999999999999,                        105P    133
-1.24781276929098D-14,100.01,-0.001,10.001,-0.001,                   105P    134
0.285999999999999;                                                   105P    135
128,1,2,1,2,0,0,0,0,0,0.,0.,4.99690024940758,4.99690024940758,       107P    136
5.54767370864748D-17,5.54767370864748D-17,5.54767370864748D-17,      107P    137
0.399110767410576,0.399110767410576,0.399110767410576,1.,1.,         107P    138
0.980154812588495,0.980154812588495,1.,1.,2.5,-6.7,100.,2.5,         107P    139
-6.7,0.,5.30252808988764,-3.77977528089888,100.,                     107P    140
5.30252808988764,-3.77977528089888,0.,6.75,                          107P    141
-8.88178419700125D-15,100.,6.75,-8.88178419700125D-15,0.,0.,         107P    142
4.99690024940758,5.54767370864748D-17,0.399110767410576;             107P    143
128,1,1,1,1,0,0,1,0,0,-0.676,-0.676,0.676,0.676,-0.361,-0.361,       109P    144
0.361,0.361,1.,1.,1.,1.,-6.76,-6.71000000000001,100.,                109P    145
6.75999999999999,-6.71000000000001,100.,-6.76,0.51,100.,             109P    146
6.75999999999999,0.509999999999999,100.,-0.676,0.676,-0.361,         109P    147
0.361;                                                               109P    148
128,1,1,1,1,0,0,1,0,0,-0.676,-0.676,0.676,0.676,-0.361,-0.361,       111P    149
0.361,0.361,1.,1.,1.,1.,6.75999999999999,-6.71000000000001,0.,       111P    150
-6.76,-6.71000000000001,0.,6.75999999999999,0.509999999999999,       111P    151
0.,-6.76,0.51,0.,-0.676,0.676,-0.361,0.361;                          111P    152
502,16,2.5,-6.7,100.,-2.49999999999999,-6.70000000000001,100.,       113P    153
-2.49999999999999,-6.70000000000001,0.,2.5,-6.7,0.,-6.75,0.,         113P    154
100.,-6.75,0.,0.,-3.90000000000001,0.,100.,-3.90000000000001,0.,     113P    155
0.,-3.90000000000001,0.5,100.,-3.90000000000001,0.5,0.,              113P    156
3.90000000000001,0.5,100.,3.90000000000001,0.5,0.,                   113P    157
3.90000000000001,0.,100.,3.90000000000001,0.,0.,                     113P    158
6.74999999999999,-1.24344978758018D-14,100.,6.74999999999999,        113P    159
-1.24344978758018D-14,0.;                                            113P    160
504,24,45,113,1,113,2,47,113,3,113,2,49,113,4,113,3,51,113,4,        115P    161
113,1,53,113,2,113,5,55,113,6,113,5,57,113,3,113,6,59,113,5,113,     115P    162
7,61,113,8,113,7,63,113,6,113,8,65,113,7,113,9,67,113,10,113,9,      115P    163
69,113,8,113,10,71,113,9,113,11,73,113,12,113,11,75,113,10,113,      115P    164
12,77,113,11,113,13,79,113,14,113,13,81,113,12,113,14,83,113,13,     115P    165
113,15,85,113,16,113,15,87,113,14,113,16,89,113,15,113,1,91,113,     115P    166
16,113,4;                                                            115P    167
406,1,8HTěleso1;                                                    117P    168
314,50.1960784313725,50.1960784313725,50.1960784313725,;             119P    169
S      1G      3D    120P    169                                        T      1
