ISO-10303-21;
HEADER;
/* Generated by software containing ST-Developer
 * from STEP Tools, Inc. (www.steptools.com) 
 */

FILE_DESCRIPTION(
/* description */ (''),
/* implementation_level */ '2;1');

FILE_NAME(
/* name */ 
'W:\\_BIG DATA\\STP IGS\\Akcesoria\\Elementy uzupe\X2\0142\X0\niaj\X2\0105\X0\c
e\\Uzupe\X2\0142\X0\niaj\X2\0105\X0\ce\\STP\\Uzupe\X2\0142\X0\niaj\X2\0105\X0\c
e\\700040.stp',
/* time_stamp */ '2022-10-10T08:52:33+02:00',
/* author */ ('aluteckkpl_am'),
/* organization */ (''),
/* preprocessor_version */ 'ST-DEVELOPER v18.1',
/* originating_system */ 'Autodesk Inventor 2021',
/* authorisation */ '');

FILE_SCHEMA (('CONFIG_CONTROL_DESIGN'));
ENDSEC;

DATA;
#10=MECHANICAL_DESIGN_GEOMETRIC_PRESENTATION_REPRESENTATION('',(#13),#387);
#11=SHAPE_REPRESENTATION_RELATIONSHIP('SRR','None',#394,#12);
#12=ADVANCED_BREP_SHAPE_REPRESENTATION('',(#14),#386);
#13=STYLED_ITEM('',(#404),#14);
#14=MANIFOLD_SOLID_BREP('Bry\X2\0142\X0\a1',#233);
#15=FACE_OUTER_BOUND('',#27,.T.);
#16=FACE_OUTER_BOUND('',#28,.T.);
#17=FACE_OUTER_BOUND('',#29,.T.);
#18=FACE_OUTER_BOUND('',#30,.T.);
#19=FACE_OUTER_BOUND('',#31,.T.);
#20=FACE_OUTER_BOUND('',#32,.T.);
#21=FACE_OUTER_BOUND('',#33,.T.);
#22=FACE_OUTER_BOUND('',#34,.T.);
#23=FACE_OUTER_BOUND('',#35,.T.);
#24=FACE_OUTER_BOUND('',#36,.T.);
#25=FACE_OUTER_BOUND('',#37,.T.);
#26=FACE_OUTER_BOUND('',#38,.T.);
#27=EDGE_LOOP('',(#149,#150,#151,#152));
#28=EDGE_LOOP('',(#153,#154,#155,#156));
#29=EDGE_LOOP('',(#157,#158,#159,#160));
#30=EDGE_LOOP('',(#161,#162,#163,#164));
#31=EDGE_LOOP('',(#165,#166,#167,#168));
#32=EDGE_LOOP('',(#169,#170,#171,#172));
#33=EDGE_LOOP('',(#173,#174,#175,#176));
#34=EDGE_LOOP('',(#177,#178,#179,#180));
#35=EDGE_LOOP('',(#181,#182,#183,#184));
#36=EDGE_LOOP('',(#185,#186,#187,#188));
#37=EDGE_LOOP('',(#189,#190,#191,#192,#193,#194,#195,#196,#197,#198));
#38=EDGE_LOOP('',(#199,#200,#201,#202,#203,#204,#205,#206,#207,#208));
#39=LINE('',#325,#69);
#40=LINE('',#327,#70);
#41=LINE('',#329,#71);
#42=LINE('',#330,#72);
#43=LINE('',#333,#73);
#44=LINE('',#335,#74);
#45=LINE('',#336,#75);
#46=LINE('',#339,#76);
#47=LINE('',#341,#77);
#48=LINE('',#342,#78);
#49=LINE('',#345,#79);
#50=LINE('',#347,#80);
#51=LINE('',#348,#81);
#52=LINE('',#351,#82);
#53=LINE('',#353,#83);
#54=LINE('',#354,#84);
#55=LINE('',#357,#85);
#56=LINE('',#359,#86);
#57=LINE('',#360,#87);
#58=LINE('',#363,#88);
#59=LINE('',#365,#89);
#60=LINE('',#366,#90);
#61=LINE('',#369,#91);
#62=LINE('',#371,#92);
#63=LINE('',#372,#93);
#64=LINE('',#375,#94);
#65=LINE('',#377,#95);
#66=LINE('',#378,#96);
#67=LINE('',#380,#97);
#68=LINE('',#381,#98);
#69=VECTOR('',#269,8.);
#70=VECTOR('',#270,100.);
#71=VECTOR('',#271,8.);
#72=VECTOR('',#272,100.);
#73=VECTOR('',#275,3.71651718682963);
#74=VECTOR('',#276,100.);
#75=VECTOR('',#277,3.71651718682963);
#76=VECTOR('',#280,8.);
#77=VECTOR('',#281,100.);
#78=VECTOR('',#282,8.);
#79=VECTOR('',#285,2.75);
#80=VECTOR('',#286,100.);
#81=VECTOR('',#287,2.75);
#82=VECTOR('',#290,29.5);
#83=VECTOR('',#291,100.);
#84=VECTOR('',#292,29.5);
#85=VECTOR('',#295,8.);
#86=VECTOR('',#296,100.);
#87=VECTOR('',#297,8.);
#88=VECTOR('',#300,29.5);
#89=VECTOR('',#301,100.);
#90=VECTOR('',#302,29.5);
#91=VECTOR('',#305,2.75);
#92=VECTOR('',#306,100.);
#93=VECTOR('',#307,2.75);
#94=VECTOR('',#310,8.);
#95=VECTOR('',#311,100.);
#96=VECTOR('',#312,8.);
#97=VECTOR('',#315,3.71651718682963);
#98=VECTOR('',#316,3.71651718682963);
#99=VERTEX_POINT('',#323);
#100=VERTEX_POINT('',#324);
#101=VERTEX_POINT('',#326);
#102=VERTEX_POINT('',#328);
#103=VERTEX_POINT('',#332);
#104=VERTEX_POINT('',#334);
#105=VERTEX_POINT('',#338);
#106=VERTEX_POINT('',#340);
#107=VERTEX_POINT('',#344);
#108=VERTEX_POINT('',#346);
#109=VERTEX_POINT('',#350);
#110=VERTEX_POINT('',#352);
#111=VERTEX_POINT('',#356);
#112=VERTEX_POINT('',#358);
#113=VERTEX_POINT('',#362);
#114=VERTEX_POINT('',#364);
#115=VERTEX_POINT('',#368);
#116=VERTEX_POINT('',#370);
#117=VERTEX_POINT('',#374);
#118=VERTEX_POINT('',#376);
#119=EDGE_CURVE('',#99,#100,#39,.T.);
#120=EDGE_CURVE('',#101,#100,#40,.T.);
#121=EDGE_CURVE('',#102,#101,#41,.T.);
#122=EDGE_CURVE('',#102,#99,#42,.T.);
#123=EDGE_CURVE('',#100,#103,#43,.T.);
#124=EDGE_CURVE('',#104,#103,#44,.T.);
#125=EDGE_CURVE('',#101,#104,#45,.T.);
#126=EDGE_CURVE('',#103,#105,#46,.T.);
#127=EDGE_CURVE('',#106,#105,#47,.T.);
#128=EDGE_CURVE('',#104,#106,#48,.T.);
#129=EDGE_CURVE('',#105,#107,#49,.T.);
#130=EDGE_CURVE('',#108,#107,#50,.T.);
#131=EDGE_CURVE('',#106,#108,#51,.T.);
#132=EDGE_CURVE('',#107,#109,#52,.T.);
#133=EDGE_CURVE('',#110,#109,#53,.T.);
#134=EDGE_CURVE('',#108,#110,#54,.T.);
#135=EDGE_CURVE('',#109,#111,#55,.T.);
#136=EDGE_CURVE('',#112,#111,#56,.T.);
#137=EDGE_CURVE('',#110,#112,#57,.T.);
#138=EDGE_CURVE('',#111,#113,#58,.T.);
#139=EDGE_CURVE('',#114,#113,#59,.T.);
#140=EDGE_CURVE('',#112,#114,#60,.T.);
#141=EDGE_CURVE('',#113,#115,#61,.T.);
#142=EDGE_CURVE('',#116,#115,#62,.T.);
#143=EDGE_CURVE('',#114,#116,#63,.T.);
#144=EDGE_CURVE('',#115,#117,#64,.T.);
#145=EDGE_CURVE('',#118,#117,#65,.T.);
#146=EDGE_CURVE('',#116,#118,#66,.T.);
#147=EDGE_CURVE('',#117,#99,#67,.T.);
#148=EDGE_CURVE('',#118,#102,#68,.T.);
#149=ORIENTED_EDGE('',*,*,#119,.T.);
#150=ORIENTED_EDGE('',*,*,#120,.F.);
#151=ORIENTED_EDGE('',*,*,#121,.F.);
#152=ORIENTED_EDGE('',*,*,#122,.T.);
#153=ORIENTED_EDGE('',*,*,#123,.T.);
#154=ORIENTED_EDGE('',*,*,#124,.F.);
#155=ORIENTED_EDGE('',*,*,#125,.F.);
#156=ORIENTED_EDGE('',*,*,#120,.T.);
#157=ORIENTED_EDGE('',*,*,#126,.T.);
#158=ORIENTED_EDGE('',*,*,#127,.F.);
#159=ORIENTED_EDGE('',*,*,#128,.F.);
#160=ORIENTED_EDGE('',*,*,#124,.T.);
#161=ORIENTED_EDGE('',*,*,#129,.T.);
#162=ORIENTED_EDGE('',*,*,#130,.F.);
#163=ORIENTED_EDGE('',*,*,#131,.F.);
#164=ORIENTED_EDGE('',*,*,#127,.T.);
#165=ORIENTED_EDGE('',*,*,#132,.T.);
#166=ORIENTED_EDGE('',*,*,#133,.F.);
#167=ORIENTED_EDGE('',*,*,#134,.F.);
#168=ORIENTED_EDGE('',*,*,#130,.T.);
#169=ORIENTED_EDGE('',*,*,#135,.T.);
#170=ORIENTED_EDGE('',*,*,#136,.F.);
#171=ORIENTED_EDGE('',*,*,#137,.F.);
#172=ORIENTED_EDGE('',*,*,#133,.T.);
#173=ORIENTED_EDGE('',*,*,#138,.T.);
#174=ORIENTED_EDGE('',*,*,#139,.F.);
#175=ORIENTED_EDGE('',*,*,#140,.F.);
#176=ORIENTED_EDGE('',*,*,#136,.T.);
#177=ORIENTED_EDGE('',*,*,#141,.T.);
#178=ORIENTED_EDGE('',*,*,#142,.F.);
#179=ORIENTED_EDGE('',*,*,#143,.F.);
#180=ORIENTED_EDGE('',*,*,#139,.T.);
#181=ORIENTED_EDGE('',*,*,#144,.T.);
#182=ORIENTED_EDGE('',*,*,#145,.F.);
#183=ORIENTED_EDGE('',*,*,#146,.F.);
#184=ORIENTED_EDGE('',*,*,#142,.T.);
#185=ORIENTED_EDGE('',*,*,#147,.T.);
#186=ORIENTED_EDGE('',*,*,#122,.F.);
#187=ORIENTED_EDGE('',*,*,#148,.F.);
#188=ORIENTED_EDGE('',*,*,#145,.T.);
#189=ORIENTED_EDGE('',*,*,#135,.F.);
#190=ORIENTED_EDGE('',*,*,#132,.F.);
#191=ORIENTED_EDGE('',*,*,#129,.F.);
#192=ORIENTED_EDGE('',*,*,#126,.F.);
#193=ORIENTED_EDGE('',*,*,#123,.F.);
#194=ORIENTED_EDGE('',*,*,#119,.F.);
#195=ORIENTED_EDGE('',*,*,#147,.F.);
#196=ORIENTED_EDGE('',*,*,#144,.F.);
#197=ORIENTED_EDGE('',*,*,#141,.F.);
#198=ORIENTED_EDGE('',*,*,#138,.F.);
#199=ORIENTED_EDGE('',*,*,#137,.T.);
#200=ORIENTED_EDGE('',*,*,#140,.T.);
#201=ORIENTED_EDGE('',*,*,#143,.T.);
#202=ORIENTED_EDGE('',*,*,#146,.T.);
#203=ORIENTED_EDGE('',*,*,#148,.T.);
#204=ORIENTED_EDGE('',*,*,#121,.T.);
#205=ORIENTED_EDGE('',*,*,#125,.T.);
#206=ORIENTED_EDGE('',*,*,#128,.T.);
#207=ORIENTED_EDGE('',*,*,#131,.T.);
#208=ORIENTED_EDGE('',*,*,#134,.T.);
#209=PLANE('',#253);
#210=PLANE('',#254);
#211=PLANE('',#255);
#212=PLANE('',#256);
#213=PLANE('',#257);
#214=PLANE('',#258);
#215=PLANE('',#259);
#216=PLANE('',#260);
#217=PLANE('',#261);
#218=PLANE('',#262);
#219=PLANE('',#263);
#220=PLANE('',#264);
#221=ADVANCED_FACE('',(#15),#209,.T.);
#222=ADVANCED_FACE('',(#16),#210,.T.);
#223=ADVANCED_FACE('',(#17),#211,.T.);
#224=ADVANCED_FACE('',(#18),#212,.T.);
#225=ADVANCED_FACE('',(#19),#213,.T.);
#226=ADVANCED_FACE('',(#20),#214,.T.);
#227=ADVANCED_FACE('',(#21),#215,.T.);
#228=ADVANCED_FACE('',(#22),#216,.T.);
#229=ADVANCED_FACE('',(#23),#217,.T.);
#230=ADVANCED_FACE('',(#24),#218,.T.);
#231=ADVANCED_FACE('',(#25),#219,.T.);
#232=ADVANCED_FACE('',(#26),#220,.F.);
#233=CLOSED_SHELL('',(#221,#222,#223,#224,#225,#226,#227,#228,#229,#230,
#231,#232));
#234=DERIVED_UNIT_ELEMENT(#236,1.);
#235=DERIVED_UNIT_ELEMENT(#389,3.);
#236=(
MASS_UNIT()
NAMED_UNIT(*)
SI_UNIT($,.GRAM.)
);
#237=DERIVED_UNIT((#234,#235));
#238=MEASURE_REPRESENTATION_ITEM('density measure',
POSITIVE_RATIO_MEASURE(1.),#237);
#239=PROPERTY_DEFINITION_REPRESENTATION(#244,#241);
#240=PROPERTY_DEFINITION_REPRESENTATION(#245,#242);
#241=REPRESENTATION('material name',(#243),#386);
#242=REPRESENTATION('density',(#238),#386);
#243=DESCRIPTIVE_REPRESENTATION_ITEM('Generic','Generic');
#244=PROPERTY_DEFINITION('material property','material name',#396);
#245=PROPERTY_DEFINITION('material property','density of part',#396);
#246=DATE_TIME_ROLE('creation_date');
#247=CC_DESIGN_DATE_AND_TIME_ASSIGNMENT(#248,#246,(#396));
#248=DATE_AND_TIME(#249,#250);
#249=CALENDAR_DATE(2014,19,8);
#250=LOCAL_TIME(9,6,51.,#251);
#251=COORDINATED_UNIVERSAL_TIME_OFFSET(0,0,.BEHIND.);
#252=AXIS2_PLACEMENT_3D('placement',#321,#265,#266);
#253=AXIS2_PLACEMENT_3D('',#322,#267,#268);
#254=AXIS2_PLACEMENT_3D('',#331,#273,#274);
#255=AXIS2_PLACEMENT_3D('',#337,#278,#279);
#256=AXIS2_PLACEMENT_3D('',#343,#283,#284);
#257=AXIS2_PLACEMENT_3D('',#349,#288,#289);
#258=AXIS2_PLACEMENT_3D('',#355,#293,#294);
#259=AXIS2_PLACEMENT_3D('',#361,#298,#299);
#260=AXIS2_PLACEMENT_3D('',#367,#303,#304);
#261=AXIS2_PLACEMENT_3D('',#373,#308,#309);
#262=AXIS2_PLACEMENT_3D('',#379,#313,#314);
#263=AXIS2_PLACEMENT_3D('',#382,#317,#318);
#264=AXIS2_PLACEMENT_3D('',#383,#319,#320);
#265=DIRECTION('axis',(0.,0.,1.));
#266=DIRECTION('refdir',(1.,0.,0.));
#267=DIRECTION('center_axis',(0.,-1.,0.));
#268=DIRECTION('ref_axis',(0.,0.,-1.));
#269=DIRECTION('',(-1.,0.,0.));
#270=DIRECTION('',(0.,0.,1.));
#271=DIRECTION('',(-1.,0.,0.));
#272=DIRECTION('',(0.,0.,1.));
#273=DIRECTION('center_axis',(-0.672672793996313,-0.739940073395944,0.));
#274=DIRECTION('ref_axis',(0.,0.,1.));
#275=DIRECTION('',(-0.739940073395944,0.672672793996312,0.));
#276=DIRECTION('',(0.,0.,1.));
#277=DIRECTION('',(-0.739940073395944,0.672672793996312,0.));
#278=DIRECTION('center_axis',(-1.,0.,0.));
#279=DIRECTION('ref_axis',(0.,0.,1.));
#280=DIRECTION('',(0.,1.,0.));
#281=DIRECTION('',(0.,0.,1.));
#282=DIRECTION('',(0.,1.,0.));
#283=DIRECTION('center_axis',(0.,1.,0.));
#284=DIRECTION('ref_axis',(0.,0.,1.));
#285=DIRECTION('',(1.,0.,0.));
#286=DIRECTION('',(0.,0.,1.));
#287=DIRECTION('',(1.,0.,0.));
#288=DIRECTION('center_axis',(-1.,0.,0.));
#289=DIRECTION('ref_axis',(0.,0.,1.));
#290=DIRECTION('',(0.,1.,0.));
#291=DIRECTION('',(0.,0.,1.));
#292=DIRECTION('',(0.,1.,0.));
#293=DIRECTION('center_axis',(0.,1.,0.));
#294=DIRECTION('ref_axis',(0.,0.,1.));
#295=DIRECTION('',(1.,0.,0.));
#296=DIRECTION('',(0.,0.,1.));
#297=DIRECTION('',(1.,0.,0.));
#298=DIRECTION('center_axis',(1.,0.,0.));
#299=DIRECTION('ref_axis',(0.,0.,-1.));
#300=DIRECTION('',(0.,-1.,0.));
#301=DIRECTION('',(0.,0.,1.));
#302=DIRECTION('',(0.,-1.,0.));
#303=DIRECTION('center_axis',(0.,1.,0.));
#304=DIRECTION('ref_axis',(0.,0.,1.));
#305=DIRECTION('',(1.,0.,0.));
#306=DIRECTION('',(0.,0.,1.));
#307=DIRECTION('',(1.,0.,0.));
#308=DIRECTION('center_axis',(1.,0.,0.));
#309=DIRECTION('ref_axis',(0.,0.,-1.));
#310=DIRECTION('',(0.,-1.,0.));
#311=DIRECTION('',(0.,0.,1.));
#312=DIRECTION('',(0.,-1.,0.));
#313=DIRECTION('center_axis',(0.672672793996313,-0.739940073395944,0.));
#314=DIRECTION('ref_axis',(0.,0.,-1.));
#315=DIRECTION('',(-0.739940073395944,-0.672672793996312,0.));
#316=DIRECTION('',(-0.739940073395944,-0.672672793996312,0.));
#317=DIRECTION('center_axis',(0.,0.,1.));
#318=DIRECTION('ref_axis',(1.,0.,0.));
#319=DIRECTION('center_axis',(0.,0.,1.));
#320=DIRECTION('ref_axis',(1.,0.,0.));
#321=CARTESIAN_POINT('',(0.,0.,0.));
#322=CARTESIAN_POINT('Origin',(4.,-10.5,0.));
#323=CARTESIAN_POINT('',(4.,-10.5,100.));
#324=CARTESIAN_POINT('',(-4.,-10.5,100.));
#325=CARTESIAN_POINT('',(2.,-10.5,100.));
#326=CARTESIAN_POINT('',(-4.,-10.5,0.));
#327=CARTESIAN_POINT('',(-4.,-10.5,0.));
#328=CARTESIAN_POINT('',(4.,-10.5,0.));
#329=CARTESIAN_POINT('',(2.,-10.5,0.));
#330=CARTESIAN_POINT('',(4.,-10.5,0.));
#331=CARTESIAN_POINT('Origin',(-4.,-10.5,0.));
#332=CARTESIAN_POINT('',(-6.75,-8.,100.));
#333=CARTESIAN_POINT('',(-7.88235294117647,-6.97058823529412,100.));
#334=CARTESIAN_POINT('',(-6.75,-8.,0.));
#335=CARTESIAN_POINT('',(-6.75,-8.,0.));
#336=CARTESIAN_POINT('',(-7.88235294117647,-6.97058823529412,0.));
#337=CARTESIAN_POINT('Origin',(-6.75,-8.,0.));
#338=CARTESIAN_POINT('',(-6.75,0.,100.));
#339=CARTESIAN_POINT('',(-6.75,0.75,100.));
#340=CARTESIAN_POINT('',(-6.75,0.,0.));
#341=CARTESIAN_POINT('',(-6.75,0.,0.));
#342=CARTESIAN_POINT('',(-6.75,0.75,0.));
#343=CARTESIAN_POINT('Origin',(-6.75,0.,0.));
#344=CARTESIAN_POINT('',(-4.,0.,100.));
#345=CARTESIAN_POINT('',(-3.375,0.,100.));
#346=CARTESIAN_POINT('',(-4.,0.,0.));
#347=CARTESIAN_POINT('',(-4.,0.,0.));
#348=CARTESIAN_POINT('',(-3.375,0.,0.));
#349=CARTESIAN_POINT('Origin',(-4.,0.,0.));
#350=CARTESIAN_POINT('',(-4.,29.5,100.));
#351=CARTESIAN_POINT('',(-4.,4.75,100.));
#352=CARTESIAN_POINT('',(-4.,29.5,0.));
#353=CARTESIAN_POINT('',(-4.,29.5,0.));
#354=CARTESIAN_POINT('',(-4.,4.75,0.));
#355=CARTESIAN_POINT('Origin',(-4.,29.5,0.));
#356=CARTESIAN_POINT('',(4.,29.5,100.));
#357=CARTESIAN_POINT('',(-2.,29.5,100.));
#358=CARTESIAN_POINT('',(4.,29.5,0.));
#359=CARTESIAN_POINT('',(4.,29.5,0.));
#360=CARTESIAN_POINT('',(-2.,29.5,0.));
#361=CARTESIAN_POINT('Origin',(4.,29.5,0.));
#362=CARTESIAN_POINT('',(4.,0.,100.));
#363=CARTESIAN_POINT('',(4.,19.5,100.));
#364=CARTESIAN_POINT('',(4.,0.,0.));
#365=CARTESIAN_POINT('',(4.,0.,0.));
#366=CARTESIAN_POINT('',(4.,19.5,0.));
#367=CARTESIAN_POINT('Origin',(4.,0.,0.));
#368=CARTESIAN_POINT('',(6.75,0.,100.));
#369=CARTESIAN_POINT('',(2.,0.,100.));
#370=CARTESIAN_POINT('',(6.75,0.,0.));
#371=CARTESIAN_POINT('',(6.75,0.,0.));
#372=CARTESIAN_POINT('',(2.,0.,0.));
#373=CARTESIAN_POINT('Origin',(6.75,0.,0.));
#374=CARTESIAN_POINT('',(6.75,-8.,100.));
#375=CARTESIAN_POINT('',(6.75,4.75,100.));
#376=CARTESIAN_POINT('',(6.75,-8.,0.));
#377=CARTESIAN_POINT('',(6.75,-8.,0.));
#378=CARTESIAN_POINT('',(6.75,4.75,0.));
#379=CARTESIAN_POINT('Origin',(6.75,-8.,0.));
#380=CARTESIAN_POINT('',(9.25735294117647,-5.72058823529412,100.));
#381=CARTESIAN_POINT('',(9.25735294117647,-5.72058823529412,0.));
#382=CARTESIAN_POINT('Origin',(0.,9.5,100.));
#383=CARTESIAN_POINT('Origin',(0.,9.5,0.));
#384=UNCERTAINTY_MEASURE_WITH_UNIT(LENGTH_MEASURE(0.01),#388,
'DISTANCE_ACCURACY_VALUE',
'Maximum model space distance between geometric entities at asserted c
onnectivities');
#385=UNCERTAINTY_MEASURE_WITH_UNIT(LENGTH_MEASURE(0.01),#388,
'DISTANCE_ACCURACY_VALUE',
'Maximum model space distance between geometric entities at asserted c
onnectivities');
#386=(
GEOMETRIC_REPRESENTATION_CONTEXT(3)
GLOBAL_UNCERTAINTY_ASSIGNED_CONTEXT((#384))
GLOBAL_UNIT_ASSIGNED_CONTEXT((#388,#390,#391))
REPRESENTATION_CONTEXT('','3D')
);
#387=(
GEOMETRIC_REPRESENTATION_CONTEXT(3)
GLOBAL_UNCERTAINTY_ASSIGNED_CONTEXT((#385))
GLOBAL_UNIT_ASSIGNED_CONTEXT((#388,#390,#391))
REPRESENTATION_CONTEXT('','3D')
);
#388=(
LENGTH_UNIT()
NAMED_UNIT(*)
SI_UNIT(.MILLI.,.METRE.)
);
#389=(
LENGTH_UNIT()
NAMED_UNIT(*)
SI_UNIT(.CENTI.,.METRE.)
);
#390=(
NAMED_UNIT(*)
PLANE_ANGLE_UNIT()
SI_UNIT($,.RADIAN.)
);
#391=(
NAMED_UNIT(*)
SI_UNIT($,.STERADIAN.)
SOLID_ANGLE_UNIT()
);
#392=SHAPE_DEFINITION_REPRESENTATION(#393,#394);
#393=PRODUCT_DEFINITION_SHAPE('',$,#396);
#394=SHAPE_REPRESENTATION('',(#252),#386);
#395=DESIGN_CONTEXT('part definition',#400,'design');
#396=PRODUCT_DEFINITION('700040','700040',#397,#395);
#397=PRODUCT_DEFINITION_FORMATION('',$,#402);
#398=PRODUCT_RELATED_PRODUCT_CATEGORY('700040','700040',(#402));
#399=APPLICATION_PROTOCOL_DEFINITION('international standard',
'ap203_configuration_controlled_3d_design_of_mechanical_parts_and_asse
mblies_mim_lf',2004,#400);
#400=APPLICATION_CONTEXT(
'Configuration Controlled 3D Design of Mechanical Parts and Assemblies');
#401=MECHANICAL_CONTEXT('part definition',#400,'mechanical');
#402=PRODUCT('700040','700040',$,(#401));
#403=PRESENTATION_STYLE_ASSIGNMENT((#405));
#404=PRESENTATION_STYLE_ASSIGNMENT((#406));
#405=SURFACE_STYLE_USAGE(.BOTH.,#411);
#406=SURFACE_STYLE_USAGE(.BOTH.,#412);
#407=SURFACE_STYLE_RENDERING_WITH_PROPERTIES($,#419,(#409));
#408=SURFACE_STYLE_RENDERING_WITH_PROPERTIES($,#420,(#410));
#409=SURFACE_STYLE_TRANSPARENT(0.);
#410=SURFACE_STYLE_TRANSPARENT(0.);
#411=SURFACE_SIDE_STYLE('',(#413,#407));
#412=SURFACE_SIDE_STYLE('',(#414,#408));
#413=SURFACE_STYLE_FILL_AREA(#415);
#414=SURFACE_STYLE_FILL_AREA(#416);
#415=FILL_AREA_STYLE('',(#417));
#416=FILL_AREA_STYLE('',(#418));
#417=FILL_AREA_STYLE_COLOUR('',#419);
#418=FILL_AREA_STYLE_COLOUR('',#420);
#419=COLOUR_RGB('',0.749019607843137,0.749019607843137,0.749019607843137);
#420=COLOUR_RGB('',0.529411764705882,0.529411764705882,0.529411764705882);
ENDSEC;
END-ISO-10303-21;
