ISO-10303-21;
HEADER;
/* Generated by software containing ST-Developer
 * from STEP Tools, Inc. (www.steptools.com) 
 */

FILE_DESCRIPTION(
/* description */ (''),
/* implementation_level */ '2;1');

FILE_NAME(
/* name */ 
'C:\\InventorWorking - Vault\\Projects\\Alutec\\ZWYMIAROWANE PRODUKTY\\
ELEMENTY Z\X2\01410104\X0\CZNE\\STEP_IGS\\210415.stp',
/* time_stamp */ '2022-08-05T09:41:31+02:00',
/* author */ ('aluteckkpl_tw'),
/* organization */ (''),
/* preprocessor_version */ 'ST-DEVELOPER v18.1',
/* originating_system */ 'Autodesk Inventor 2021',
/* authorisation */ '');

FILE_SCHEMA (('AUTOMOTIVE_DESIGN { 1 0 10303 214 3 1 1 }'));
ENDSEC;

DATA;
#10=MECHANICAL_DESIGN_GEOMETRIC_PRESENTATION_REPRESENTATION('',(#17),#597);
#11=ITEM_DEFINED_TRANSFORMATION($,$,#384,#405);
#12=(
REPRESENTATION_RELATIONSHIP($,$,#608,#607)
REPRESENTATION_RELATIONSHIP_WITH_TRANSFORMATION(#11)
SHAPE_REPRESENTATION_RELATIONSHIP()
);
#13=CONTEXT_DEPENDENT_SHAPE_REPRESENTATION(#12,#606);
#14=NEXT_ASSEMBLY_USAGE_OCCURRENCE('210415 210415:1','210415 210415:1',
'210415 210415:1',#610,#611,'210415 210415:1');
#15=SHAPE_REPRESENTATION_RELATIONSHIP('SRR','None',#608,#16);
#16=ADVANCED_BREP_SHAPE_REPRESENTATION('',(#18),#596);
#17=STYLED_ITEM('',(#362),#18);
#18=MANIFOLD_SOLID_BREP('T\X2\011B\X0\leso1',#349);
#19=FACE_BOUND('',#67,.T.);
#20=FACE_BOUND('',#71,.T.);
#21=PLANE('',#389);
#22=PLANE('',#390);
#23=PLANE('',#391);
#24=PLANE('',#392);
#25=PLANE('',#393);
#26=PLANE('',#394);
#27=PLANE('',#395);
#28=PLANE('',#396);
#29=PLANE('',#397);
#30=PLANE('',#398);
#31=PLANE('',#399);
#32=PLANE('',#400);
#33=PLANE('',#401);
#34=PLANE('',#402);
#35=PLANE('',#403);
#36=PLANE('',#404);
#37=FACE_OUTER_BOUND('',#54,.T.);
#38=FACE_OUTER_BOUND('',#55,.T.);
#39=FACE_OUTER_BOUND('',#56,.T.);
#40=FACE_OUTER_BOUND('',#57,.T.);
#41=FACE_OUTER_BOUND('',#58,.T.);
#42=FACE_OUTER_BOUND('',#59,.T.);
#43=FACE_OUTER_BOUND('',#60,.T.);
#44=FACE_OUTER_BOUND('',#61,.T.);
#45=FACE_OUTER_BOUND('',#62,.T.);
#46=FACE_OUTER_BOUND('',#63,.T.);
#47=FACE_OUTER_BOUND('',#64,.T.);
#48=FACE_OUTER_BOUND('',#65,.T.);
#49=FACE_OUTER_BOUND('',#66,.T.);
#50=FACE_OUTER_BOUND('',#68,.T.);
#51=FACE_OUTER_BOUND('',#69,.T.);
#52=FACE_OUTER_BOUND('',#70,.T.);
#53=FACE_OUTER_BOUND('',#72,.T.);
#54=EDGE_LOOP('',(#239,#240,#241,#242,#243));
#55=EDGE_LOOP('',(#244,#245,#246,#247));
#56=EDGE_LOOP('',(#248,#249,#250,#251));
#57=EDGE_LOOP('',(#252,#253,#254,#255));
#58=EDGE_LOOP('',(#256,#257,#258,#259));
#59=EDGE_LOOP('',(#260,#261,#262,#263));
#60=EDGE_LOOP('',(#264,#265,#266,#267));
#61=EDGE_LOOP('',(#268,#269,#270,#271));
#62=EDGE_LOOP('',(#272,#273,#274,#275));
#63=EDGE_LOOP('',(#276,#277,#278,#279,#280,#281,#282,#283,#284,#285));
#64=EDGE_LOOP('',(#286,#287,#288,#289));
#65=EDGE_LOOP('',(#290,#291,#292,#293));
#66=EDGE_LOOP('',(#294,#295,#296,#297));
#67=EDGE_LOOP('',(#298));
#68=EDGE_LOOP('',(#299,#300,#301,#302));
#69=EDGE_LOOP('',(#303,#304,#305,#306));
#70=EDGE_LOOP('',(#307,#308,#309,#310,#311,#312,#313,#314,#315,#316,#317,
#318));
#71=EDGE_LOOP('',(#319,#320));
#72=EDGE_LOOP('',(#321,#322,#323,#324,#325,#326,#327,#328,#329,#330));
#73=LINE('',#503,#116);
#74=LINE('',#508,#117);
#75=LINE('',#510,#118);
#76=LINE('',#512,#119);
#77=LINE('',#513,#120);
#78=LINE('',#517,#121);
#79=LINE('',#519,#122);
#80=LINE('',#521,#123);
#81=LINE('',#522,#124);
#82=LINE('',#525,#125);
#83=LINE('',#527,#126);
#84=LINE('',#528,#127);
#85=LINE('',#531,#128);
#86=LINE('',#533,#129);
#87=LINE('',#534,#130);
#88=LINE('',#537,#131);
#89=LINE('',#538,#132);
#90=LINE('',#541,#133);
#91=LINE('',#542,#134);
#92=LINE('',#545,#135);
#93=LINE('',#546,#136);
#94=LINE('',#549,#137);
#95=LINE('',#550,#138);
#96=LINE('',#553,#139);
#97=LINE('',#555,#140);
#98=LINE('',#557,#141);
#99=LINE('',#559,#142);
#100=LINE('',#561,#143);
#101=LINE('',#563,#144);
#102=LINE('',#564,#145);
#103=LINE('',#568,#146);
#104=LINE('',#569,#147);
#105=LINE('',#570,#148);
#106=LINE('',#573,#149);
#107=LINE('',#574,#150);
#108=LINE('',#577,#151);
#109=LINE('',#578,#152);
#110=LINE('',#581,#153);
#111=LINE('',#582,#154);
#112=LINE('',#585,#155);
#113=LINE('',#586,#156);
#114=LINE('',#588,#157);
#115=LINE('',#589,#158);
#116=VECTOR('',#416,4.25);
#117=VECTOR('',#421,10.);
#118=VECTOR('',#422,10.);
#119=VECTOR('',#423,10.);
#120=VECTOR('',#424,10.);
#121=VECTOR('',#427,10.);
#122=VECTOR('',#428,10.);
#123=VECTOR('',#429,10.);
#124=VECTOR('',#430,10.);
#125=VECTOR('',#433,10.);
#126=VECTOR('',#434,10.);
#127=VECTOR('',#435,10.);
#128=VECTOR('',#438,10.);
#129=VECTOR('',#439,10.);
#130=VECTOR('',#440,10.);
#131=VECTOR('',#443,10.);
#132=VECTOR('',#444,10.);
#133=VECTOR('',#447,10.);
#134=VECTOR('',#448,10.);
#135=VECTOR('',#451,10.);
#136=VECTOR('',#452,10.);
#137=VECTOR('',#455,10.);
#138=VECTOR('',#456,10.);
#139=VECTOR('',#459,10.);
#140=VECTOR('',#460,10.);
#141=VECTOR('',#461,10.);
#142=VECTOR('',#462,10.);
#143=VECTOR('',#463,10.);
#144=VECTOR('',#464,10.);
#145=VECTOR('',#465,10.);
#146=VECTOR('',#468,10.);
#147=VECTOR('',#469,10.);
#148=VECTOR('',#470,10.);
#149=VECTOR('',#473,10.);
#150=VECTOR('',#474,10.);
#151=VECTOR('',#477,10.);
#152=VECTOR('',#478,10.);
#153=VECTOR('',#481,10.);
#154=VECTOR('',#482,10.);
#155=VECTOR('',#485,10.);
#156=VECTOR('',#486,10.);
#157=VECTOR('',#489,10.);
#158=VECTOR('',#490,10.);
#159=CIRCLE('',#386,4.25);
#160=CIRCLE('',#387,4.25);
#161=CIRCLE('',#388,4.25);
#162=VERTEX_POINT('',#498);
#163=VERTEX_POINT('',#499);
#164=VERTEX_POINT('',#502);
#165=VERTEX_POINT('',#506);
#166=VERTEX_POINT('',#507);
#167=VERTEX_POINT('',#509);
#168=VERTEX_POINT('',#511);
#169=VERTEX_POINT('',#515);
#170=VERTEX_POINT('',#516);
#171=VERTEX_POINT('',#518);
#172=VERTEX_POINT('',#520);
#173=VERTEX_POINT('',#524);
#174=VERTEX_POINT('',#526);
#175=VERTEX_POINT('',#530);
#176=VERTEX_POINT('',#532);
#177=VERTEX_POINT('',#536);
#178=VERTEX_POINT('',#540);
#179=VERTEX_POINT('',#544);
#180=VERTEX_POINT('',#548);
#181=VERTEX_POINT('',#552);
#182=VERTEX_POINT('',#554);
#183=VERTEX_POINT('',#556);
#184=VERTEX_POINT('',#558);
#185=VERTEX_POINT('',#560);
#186=VERTEX_POINT('',#562);
#187=VERTEX_POINT('',#566);
#188=VERTEX_POINT('',#567);
#189=VERTEX_POINT('',#572);
#190=VERTEX_POINT('',#576);
#191=VERTEX_POINT('',#580);
#192=VERTEX_POINT('',#584);
#193=EDGE_CURVE('',#162,#163,#159,.T.);
#194=EDGE_CURVE('',#163,#162,#160,.T.);
#195=EDGE_CURVE('',#163,#164,#73,.T.);
#196=EDGE_CURVE('',#164,#164,#161,.T.);
#197=EDGE_CURVE('',#165,#166,#74,.T.);
#198=EDGE_CURVE('',#167,#166,#75,.T.);
#199=EDGE_CURVE('',#168,#167,#76,.T.);
#200=EDGE_CURVE('',#165,#168,#77,.T.);
#201=EDGE_CURVE('',#169,#170,#78,.T.);
#202=EDGE_CURVE('',#171,#170,#79,.T.);
#203=EDGE_CURVE('',#172,#171,#80,.T.);
#204=EDGE_CURVE('',#169,#172,#81,.T.);
#205=EDGE_CURVE('',#173,#170,#82,.T.);
#206=EDGE_CURVE('',#173,#174,#83,.T.);
#207=EDGE_CURVE('',#171,#174,#84,.T.);
#208=EDGE_CURVE('',#175,#168,#85,.T.);
#209=EDGE_CURVE('',#175,#176,#86,.T.);
#210=EDGE_CURVE('',#165,#176,#87,.T.);
#211=EDGE_CURVE('',#174,#177,#88,.T.);
#212=EDGE_CURVE('',#177,#172,#89,.T.);
#213=EDGE_CURVE('',#167,#178,#90,.T.);
#214=EDGE_CURVE('',#178,#175,#91,.T.);
#215=EDGE_CURVE('',#177,#179,#92,.T.);
#216=EDGE_CURVE('',#179,#169,#93,.T.);
#217=EDGE_CURVE('',#166,#180,#94,.T.);
#218=EDGE_CURVE('',#180,#178,#95,.T.);
#219=EDGE_CURVE('',#181,#180,#96,.T.);
#220=EDGE_CURVE('',#182,#181,#97,.T.);
#221=EDGE_CURVE('',#183,#182,#98,.T.);
#222=EDGE_CURVE('',#184,#183,#99,.T.);
#223=EDGE_CURVE('',#185,#184,#100,.T.);
#224=EDGE_CURVE('',#186,#185,#101,.T.);
#225=EDGE_CURVE('',#176,#186,#102,.T.);
#226=EDGE_CURVE('',#187,#188,#103,.T.);
#227=EDGE_CURVE('',#188,#182,#104,.T.);
#228=EDGE_CURVE('',#187,#181,#105,.T.);
#229=EDGE_CURVE('',#188,#189,#106,.T.);
#230=EDGE_CURVE('',#189,#183,#107,.T.);
#231=EDGE_CURVE('',#189,#190,#108,.T.);
#232=EDGE_CURVE('',#190,#184,#109,.T.);
#233=EDGE_CURVE('',#190,#191,#110,.T.);
#234=EDGE_CURVE('',#191,#185,#111,.T.);
#235=EDGE_CURVE('',#191,#192,#112,.T.);
#236=EDGE_CURVE('',#192,#186,#113,.T.);
#237=EDGE_CURVE('',#192,#173,#114,.T.);
#238=EDGE_CURVE('',#179,#187,#115,.T.);
#239=ORIENTED_EDGE('',*,*,#193,.F.);
#240=ORIENTED_EDGE('',*,*,#194,.F.);
#241=ORIENTED_EDGE('',*,*,#195,.T.);
#242=ORIENTED_EDGE('',*,*,#196,.F.);
#243=ORIENTED_EDGE('',*,*,#195,.F.);
#244=ORIENTED_EDGE('',*,*,#197,.T.);
#245=ORIENTED_EDGE('',*,*,#198,.F.);
#246=ORIENTED_EDGE('',*,*,#199,.F.);
#247=ORIENTED_EDGE('',*,*,#200,.F.);
#248=ORIENTED_EDGE('',*,*,#201,.T.);
#249=ORIENTED_EDGE('',*,*,#202,.F.);
#250=ORIENTED_EDGE('',*,*,#203,.F.);
#251=ORIENTED_EDGE('',*,*,#204,.F.);
#252=ORIENTED_EDGE('',*,*,#202,.T.);
#253=ORIENTED_EDGE('',*,*,#205,.F.);
#254=ORIENTED_EDGE('',*,*,#206,.T.);
#255=ORIENTED_EDGE('',*,*,#207,.F.);
#256=ORIENTED_EDGE('',*,*,#200,.T.);
#257=ORIENTED_EDGE('',*,*,#208,.F.);
#258=ORIENTED_EDGE('',*,*,#209,.T.);
#259=ORIENTED_EDGE('',*,*,#210,.F.);
#260=ORIENTED_EDGE('',*,*,#203,.T.);
#261=ORIENTED_EDGE('',*,*,#207,.T.);
#262=ORIENTED_EDGE('',*,*,#211,.T.);
#263=ORIENTED_EDGE('',*,*,#212,.T.);
#264=ORIENTED_EDGE('',*,*,#199,.T.);
#265=ORIENTED_EDGE('',*,*,#213,.T.);
#266=ORIENTED_EDGE('',*,*,#214,.T.);
#267=ORIENTED_EDGE('',*,*,#208,.T.);
#268=ORIENTED_EDGE('',*,*,#204,.T.);
#269=ORIENTED_EDGE('',*,*,#212,.F.);
#270=ORIENTED_EDGE('',*,*,#215,.T.);
#271=ORIENTED_EDGE('',*,*,#216,.T.);
#272=ORIENTED_EDGE('',*,*,#198,.T.);
#273=ORIENTED_EDGE('',*,*,#217,.T.);
#274=ORIENTED_EDGE('',*,*,#218,.T.);
#275=ORIENTED_EDGE('',*,*,#213,.F.);
#276=ORIENTED_EDGE('',*,*,#209,.F.);
#277=ORIENTED_EDGE('',*,*,#214,.F.);
#278=ORIENTED_EDGE('',*,*,#218,.F.);
#279=ORIENTED_EDGE('',*,*,#219,.F.);
#280=ORIENTED_EDGE('',*,*,#220,.F.);
#281=ORIENTED_EDGE('',*,*,#221,.F.);
#282=ORIENTED_EDGE('',*,*,#222,.F.);
#283=ORIENTED_EDGE('',*,*,#223,.F.);
#284=ORIENTED_EDGE('',*,*,#224,.F.);
#285=ORIENTED_EDGE('',*,*,#225,.F.);
#286=ORIENTED_EDGE('',*,*,#226,.T.);
#287=ORIENTED_EDGE('',*,*,#227,.T.);
#288=ORIENTED_EDGE('',*,*,#220,.T.);
#289=ORIENTED_EDGE('',*,*,#228,.F.);
#290=ORIENTED_EDGE('',*,*,#229,.T.);
#291=ORIENTED_EDGE('',*,*,#230,.T.);
#292=ORIENTED_EDGE('',*,*,#221,.T.);
#293=ORIENTED_EDGE('',*,*,#227,.F.);
#294=ORIENTED_EDGE('',*,*,#231,.T.);
#295=ORIENTED_EDGE('',*,*,#232,.T.);
#296=ORIENTED_EDGE('',*,*,#222,.T.);
#297=ORIENTED_EDGE('',*,*,#230,.F.);
#298=ORIENTED_EDGE('',*,*,#196,.T.);
#299=ORIENTED_EDGE('',*,*,#233,.T.);
#300=ORIENTED_EDGE('',*,*,#234,.T.);
#301=ORIENTED_EDGE('',*,*,#223,.T.);
#302=ORIENTED_EDGE('',*,*,#232,.F.);
#303=ORIENTED_EDGE('',*,*,#235,.T.);
#304=ORIENTED_EDGE('',*,*,#236,.T.);
#305=ORIENTED_EDGE('',*,*,#224,.T.);
#306=ORIENTED_EDGE('',*,*,#234,.F.);
#307=ORIENTED_EDGE('',*,*,#237,.T.);
#308=ORIENTED_EDGE('',*,*,#205,.T.);
#309=ORIENTED_EDGE('',*,*,#201,.F.);
#310=ORIENTED_EDGE('',*,*,#216,.F.);
#311=ORIENTED_EDGE('',*,*,#238,.T.);
#312=ORIENTED_EDGE('',*,*,#228,.T.);
#313=ORIENTED_EDGE('',*,*,#219,.T.);
#314=ORIENTED_EDGE('',*,*,#217,.F.);
#315=ORIENTED_EDGE('',*,*,#197,.F.);
#316=ORIENTED_EDGE('',*,*,#210,.T.);
#317=ORIENTED_EDGE('',*,*,#225,.T.);
#318=ORIENTED_EDGE('',*,*,#236,.F.);
#319=ORIENTED_EDGE('',*,*,#193,.T.);
#320=ORIENTED_EDGE('',*,*,#194,.T.);
#321=ORIENTED_EDGE('',*,*,#215,.F.);
#322=ORIENTED_EDGE('',*,*,#211,.F.);
#323=ORIENTED_EDGE('',*,*,#206,.F.);
#324=ORIENTED_EDGE('',*,*,#237,.F.);
#325=ORIENTED_EDGE('',*,*,#235,.F.);
#326=ORIENTED_EDGE('',*,*,#233,.F.);
#327=ORIENTED_EDGE('',*,*,#231,.F.);
#328=ORIENTED_EDGE('',*,*,#229,.F.);
#329=ORIENTED_EDGE('',*,*,#226,.F.);
#330=ORIENTED_EDGE('',*,*,#238,.F.);
#331=CYLINDRICAL_SURFACE('',#385,4.25);
#332=ADVANCED_FACE('',(#37),#331,.F.);
#333=ADVANCED_FACE('',(#38),#21,.F.);
#334=ADVANCED_FACE('',(#39),#22,.F.);
#335=ADVANCED_FACE('',(#40),#23,.T.);
#336=ADVANCED_FACE('',(#41),#24,.T.);
#337=ADVANCED_FACE('',(#42),#25,.T.);
#338=ADVANCED_FACE('',(#43),#26,.T.);
#339=ADVANCED_FACE('',(#44),#27,.T.);
#340=ADVANCED_FACE('',(#45),#28,.T.);
#341=ADVANCED_FACE('',(#46),#29,.F.);
#342=ADVANCED_FACE('',(#47),#30,.T.);
#343=ADVANCED_FACE('',(#48),#31,.T.);
#344=ADVANCED_FACE('',(#49,#19),#32,.T.);
#345=ADVANCED_FACE('',(#50),#33,.T.);
#346=ADVANCED_FACE('',(#51),#34,.T.);
#347=ADVANCED_FACE('',(#52,#20),#35,.T.);
#348=ADVANCED_FACE('',(#53),#36,.T.);
#349=CLOSED_SHELL('',(#332,#333,#334,#335,#336,#337,#338,#339,#340,#341,
#342,#343,#344,#345,#346,#347,#348));
#350=DERIVED_UNIT_ELEMENT(#352,1.);
#351=DERIVED_UNIT_ELEMENT(#599,3.);
#352=(
MASS_UNIT()
NAMED_UNIT(*)
SI_UNIT($,.GRAM.)
);
#353=DERIVED_UNIT((#350,#351));
#354=MEASURE_REPRESENTATION_ITEM('density measure',
POSITIVE_RATIO_MEASURE(0.94),#353);
#355=PROPERTY_DEFINITION_REPRESENTATION(#360,#357);
#356=PROPERTY_DEFINITION_REPRESENTATION(#361,#358);
#357=REPRESENTATION('material name',(#359),#596);
#358=REPRESENTATION('density',(#354),#596);
#359=DESCRIPTIVE_REPRESENTATION_ITEM('UHMW - \X2\010D\X0\ern\X\E1',
'UHMW - \X2\010D\X0\ern\X\E1');
#360=PROPERTY_DEFINITION('material property','material name',#611);
#361=PROPERTY_DEFINITION('material property','density of part',#611);
#362=PRESENTATION_STYLE_ASSIGNMENT((#363));
#363=SURFACE_STYLE_USAGE(.BOTH.,#366);
#364=SURFACE_STYLE_RENDERING_WITH_PROPERTIES($,#370,(#365));
#365=SURFACE_STYLE_TRANSPARENT(0.);
#366=SURFACE_SIDE_STYLE('',(#367,#364));
#367=SURFACE_STYLE_FILL_AREA(#368);
#368=FILL_AREA_STYLE('',(#369));
#369=FILL_AREA_STYLE_COLOUR('',#370);
#370=COLOUR_RGB('',0.501960784313725,0.501960784313725,0.501960784313725);
#371=DATE_TIME_ROLE('creation_date');
#372=DATE_TIME_ROLE('creation_date');
#373=APPLIED_DATE_AND_TIME_ASSIGNMENT(#375,#371,(#610));
#374=APPLIED_DATE_AND_TIME_ASSIGNMENT(#376,#372,(#611));
#375=DATE_AND_TIME(#377,#379);
#376=DATE_AND_TIME(#378,#380);
#377=CALENDAR_DATE(2022,27,7);
#378=CALENDAR_DATE(2014,3,1);
#379=LOCAL_TIME(0,0,0.,#381);
#380=LOCAL_TIME(0,0,0.,#382);
#381=COORDINATED_UNIVERSAL_TIME_OFFSET(0,0,.BEHIND.);
#382=COORDINATED_UNIVERSAL_TIME_OFFSET(0,0,.BEHIND.);
#383=AXIS2_PLACEMENT_3D('placement',#495,#406,#407);
#384=AXIS2_PLACEMENT_3D('placement',#496,#408,#409);
#385=AXIS2_PLACEMENT_3D('',#497,#410,#411);
#386=AXIS2_PLACEMENT_3D('',#500,#412,#413);
#387=AXIS2_PLACEMENT_3D('',#501,#414,#415);
#388=AXIS2_PLACEMENT_3D('',#504,#417,#418);
#389=AXIS2_PLACEMENT_3D('',#505,#419,#420);
#390=AXIS2_PLACEMENT_3D('',#514,#425,#426);
#391=AXIS2_PLACEMENT_3D('',#523,#431,#432);
#392=AXIS2_PLACEMENT_3D('',#529,#436,#437);
#393=AXIS2_PLACEMENT_3D('',#535,#441,#442);
#394=AXIS2_PLACEMENT_3D('',#539,#445,#446);
#395=AXIS2_PLACEMENT_3D('',#543,#449,#450);
#396=AXIS2_PLACEMENT_3D('',#547,#453,#454);
#397=AXIS2_PLACEMENT_3D('',#551,#457,#458);
#398=AXIS2_PLACEMENT_3D('',#565,#466,#467);
#399=AXIS2_PLACEMENT_3D('',#571,#471,#472);
#400=AXIS2_PLACEMENT_3D('',#575,#475,#476);
#401=AXIS2_PLACEMENT_3D('',#579,#479,#480);
#402=AXIS2_PLACEMENT_3D('',#583,#483,#484);
#403=AXIS2_PLACEMENT_3D('',#587,#487,#488);
#404=AXIS2_PLACEMENT_3D('',#590,#491,#492);
#405=AXIS2_PLACEMENT_3D('',#591,#493,#494);
#406=DIRECTION('axis',(0.,0.,1.));
#407=DIRECTION('refdir',(1.,0.,0.));
#408=DIRECTION('axis',(0.,0.,1.));
#409=DIRECTION('refdir',(1.,0.,0.));
#410=DIRECTION('center_axis',(0.,1.,0.));
#411=DIRECTION('ref_axis',(-1.,0.,0.));
#412=DIRECTION('center_axis',(0.,-1.,0.));
#413=DIRECTION('ref_axis',(-1.,0.,0.));
#414=DIRECTION('center_axis',(0.,-1.,0.));
#415=DIRECTION('ref_axis',(-1.,0.,0.));
#416=DIRECTION('',(0.,-1.,0.));
#417=DIRECTION('center_axis',(0.,1.,0.));
#418=DIRECTION('ref_axis',(-1.,0.,0.));
#419=DIRECTION('center_axis',(0.,0.,-1.));
#420=DIRECTION('ref_axis',(-1.,0.,0.));
#421=DIRECTION('',(1.,0.,0.));
#422=DIRECTION('',(4.74454284027845E-17,-1.,0.));
#423=DIRECTION('',(1.,0.,0.));
#424=DIRECTION('',(-1.89781713611138E-16,1.,0.));
#425=DIRECTION('center_axis',(0.,0.,1.));
#426=DIRECTION('ref_axis',(1.,0.,0.));
#427=DIRECTION('',(-1.,0.,0.));
#428=DIRECTION('',(1.89781713611138E-16,-1.,0.));
#429=DIRECTION('',(-1.,0.,0.));
#430=DIRECTION('',(-4.74454284027845E-17,1.,0.));
#431=DIRECTION('center_axis',(-1.,-1.89781713611138E-16,0.));
#432=DIRECTION('ref_axis',(0.,0.,1.));
#433=DIRECTION('',(0.,0.,-1.));
#434=DIRECTION('',(-1.89781713611138E-16,1.,0.));
#435=DIRECTION('',(0.,0.,1.));
#436=DIRECTION('center_axis',(-1.,-1.89781713611138E-16,0.));
#437=DIRECTION('ref_axis',(0.,0.,1.));
#438=DIRECTION('',(0.,0.,1.));
#439=DIRECTION('',(1.89781713611138E-16,-1.,0.));
#440=DIRECTION('',(0.,0.,-1.));
#441=DIRECTION('center_axis',(0.,1.,0.));
#442=DIRECTION('ref_axis',(0.,0.,1.));
#443=DIRECTION('',(1.,0.,0.));
#444=DIRECTION('',(0.,0.,-1.));
#445=DIRECTION('center_axis',(0.,1.,0.));
#446=DIRECTION('ref_axis',(0.,0.,1.));
#447=DIRECTION('',(0.,0.,-1.));
#448=DIRECTION('',(-1.,0.,0.));
#449=DIRECTION('center_axis',(1.,4.74454284027845E-17,0.));
#450=DIRECTION('ref_axis',(0.,0.,-1.));
#451=DIRECTION('',(4.74454284027845E-17,-1.,0.));
#452=DIRECTION('',(0.,0.,-1.));
#453=DIRECTION('center_axis',(1.,4.74454284027845E-17,0.));
#454=DIRECTION('ref_axis',(0.,0.,-1.));
#455=DIRECTION('',(0.,0.,-1.));
#456=DIRECTION('',(-4.74454284027845E-17,1.,0.));
#457=DIRECTION('center_axis',(0.,0.,1.));
#458=DIRECTION('ref_axis',(1.,0.,0.));
#459=DIRECTION('',(-1.,0.,0.));
#460=DIRECTION('',(-1.58603289232165E-16,1.,0.));
#461=DIRECTION('',(0.707106781186548,0.707106781186548,0.));
#462=DIRECTION('',(1.,0.,0.));
#463=DIRECTION('',(0.707106781186548,-0.707106781186547,0.));
#464=DIRECTION('',(3.1720657846433E-16,-1.,0.));
#465=DIRECTION('',(-1.,0.,0.));
#466=DIRECTION('center_axis',(1.,1.58603289232165E-16,0.));
#467=DIRECTION('ref_axis',(0.,0.,-1.));
#468=DIRECTION('',(1.58603289232165E-16,-1.,0.));
#469=DIRECTION('',(0.,0.,-1.));
#470=DIRECTION('',(0.,0.,-1.));
#471=DIRECTION('center_axis',(0.707106781186548,-0.707106781186548,0.));
#472=DIRECTION('ref_axis',(0.,0.,-1.));
#473=DIRECTION('',(-0.707106781186548,-0.707106781186548,0.));
#474=DIRECTION('',(0.,0.,-1.));
#475=DIRECTION('center_axis',(0.,-1.,0.));
#476=DIRECTION('ref_axis',(0.,0.,-1.));
#477=DIRECTION('',(-1.,0.,0.));
#478=DIRECTION('',(0.,0.,-1.));
#479=DIRECTION('center_axis',(-0.707106781186547,-0.707106781186548,0.));
#480=DIRECTION('ref_axis',(0.,0.,1.));
#481=DIRECTION('',(-0.707106781186548,0.707106781186547,0.));
#482=DIRECTION('',(0.,0.,-1.));
#483=DIRECTION('center_axis',(-1.,-3.1720657846433E-16,0.));
#484=DIRECTION('ref_axis',(0.,0.,1.));
#485=DIRECTION('',(-3.1720657846433E-16,1.,0.));
#486=DIRECTION('',(0.,0.,-1.));
#487=DIRECTION('center_axis',(0.,1.,0.));
#488=DIRECTION('ref_axis',(0.,0.,1.));
#489=DIRECTION('',(1.,0.,0.));
#490=DIRECTION('',(1.,0.,0.));
#491=DIRECTION('center_axis',(0.,0.,1.));
#492=DIRECTION('ref_axis',(1.,0.,0.));
#493=DIRECTION('',(0.,0.,1.));
#494=DIRECTION('',(1.,0.,0.));
#495=CARTESIAN_POINT('',(0.,0.,0.));
#496=CARTESIAN_POINT('',(0.,0.,0.));
#497=CARTESIAN_POINT('Origin',(0.,-50.6857579996298,0.));
#498=CARTESIAN_POINT('',(-4.25,-4.,0.));
#499=CARTESIAN_POINT('',(4.25,-4.,-5.20474889637625E-16));
#500=CARTESIAN_POINT('Origin',(0.,-4.,0.));
#501=CARTESIAN_POINT('Origin',(0.,-4.,0.));
#502=CARTESIAN_POINT('',(4.25,-12.3,-5.20474889637625E-16));
#503=CARTESIAN_POINT('',(4.25,-50.6857579996298,-5.20474889637625E-16));
#504=CARTESIAN_POINT('Origin',(0.,-12.3,0.));
#505=CARTESIAN_POINT('Origin',(4.,7.7,-8.));
#506=CARTESIAN_POINT('',(-4.00000000000001,-4.,-8.));
#507=CARTESIAN_POINT('',(4.,-4.,-8.));
#508=CARTESIAN_POINT('',(2.,-4.,-8.));
#509=CARTESIAN_POINT('',(4.,7.7,-8.));
#510=CARTESIAN_POINT('',(4.,7.7,-8.));
#511=CARTESIAN_POINT('',(-4.00000000000001,7.7,-8.));
#512=CARTESIAN_POINT('',(-1.66533453693773E-15,7.7,-8.));
#513=CARTESIAN_POINT('',(-4.,1.85,-8.));
#514=CARTESIAN_POINT('Origin',(-4.,7.7,8.));
#515=CARTESIAN_POINT('',(4.,-4.,8.));
#516=CARTESIAN_POINT('',(-4.,-4.,8.));
#517=CARTESIAN_POINT('',(-2.,-4.,8.));
#518=CARTESIAN_POINT('',(-4.,7.7,8.));
#519=CARTESIAN_POINT('',(-4.,1.85,8.));
#520=CARTESIAN_POINT('',(4.,7.7,8.));
#521=CARTESIAN_POINT('',(-4.,7.7,8.));
#522=CARTESIAN_POINT('',(4.,7.7,8.));
#523=CARTESIAN_POINT('Origin',(-4.,-4.,0.));
#524=CARTESIAN_POINT('',(-4.,-4.,20.));
#525=CARTESIAN_POINT('',(-4.,-4.,0.));
#526=CARTESIAN_POINT('',(-4.,7.7,20.));
#527=CARTESIAN_POINT('',(-4.,-4.,20.));
#528=CARTESIAN_POINT('',(-4.,7.7,0.));
#529=CARTESIAN_POINT('Origin',(-4.,-4.,0.));
#530=CARTESIAN_POINT('',(-4.,7.7,-20.));
#531=CARTESIAN_POINT('',(-4.,7.7,0.));
#532=CARTESIAN_POINT('',(-4.,-4.,-20.));
#533=CARTESIAN_POINT('',(-4.,-4.,-20.));
#534=CARTESIAN_POINT('',(-4.,-4.,0.));
#535=CARTESIAN_POINT('Origin',(-4.,7.7,0.));
#536=CARTESIAN_POINT('',(4.,7.7,20.));
#537=CARTESIAN_POINT('',(-4.,7.7,20.));
#538=CARTESIAN_POINT('',(4.,7.7,0.));
#539=CARTESIAN_POINT('Origin',(-4.,7.7,0.));
#540=CARTESIAN_POINT('',(4.,7.7,-20.));
#541=CARTESIAN_POINT('',(4.,7.7,0.));
#542=CARTESIAN_POINT('',(-4.,7.7,-20.));
#543=CARTESIAN_POINT('Origin',(4.,7.7,0.));
#544=CARTESIAN_POINT('',(4.,-4.,20.));
#545=CARTESIAN_POINT('',(4.,7.7,20.));
#546=CARTESIAN_POINT('',(4.,-4.,0.));
#547=CARTESIAN_POINT('Origin',(4.,7.7,0.));
#548=CARTESIAN_POINT('',(4.,-4.,-20.));
#549=CARTESIAN_POINT('',(4.,-4.,0.));
#550=CARTESIAN_POINT('',(4.,7.7,-20.));
#551=CARTESIAN_POINT('Origin',(-4.16333634234434E-16,-3.02383173374927,
-20.));
#552=CARTESIAN_POINT('',(6.7,-4.,-20.));
#553=CARTESIAN_POINT('',(4.,-4.,-20.));
#554=CARTESIAN_POINT('',(6.7,-11.,-20.));
#555=CARTESIAN_POINT('',(6.7,-4.,-20.));
#556=CARTESIAN_POINT('',(5.4,-12.3,-20.));
#557=CARTESIAN_POINT('',(6.7,-11.,-20.));
#558=CARTESIAN_POINT('',(-5.4,-12.3,-20.));
#559=CARTESIAN_POINT('',(5.4,-12.3,-20.));
#560=CARTESIAN_POINT('',(-6.7,-11.,-20.));
#561=CARTESIAN_POINT('',(-5.4,-12.3,-20.));
#562=CARTESIAN_POINT('',(-6.7,-4.,-20.));
#563=CARTESIAN_POINT('',(-6.7,-11.,-20.));
#564=CARTESIAN_POINT('',(-6.7,-4.,-20.));
#565=CARTESIAN_POINT('Origin',(6.7,-4.,0.));
#566=CARTESIAN_POINT('',(6.7,-4.,20.));
#567=CARTESIAN_POINT('',(6.7,-11.,20.));
#568=CARTESIAN_POINT('',(6.7,-4.,20.));
#569=CARTESIAN_POINT('',(6.7,-11.,0.));
#570=CARTESIAN_POINT('',(6.7,-4.,0.));
#571=CARTESIAN_POINT('Origin',(6.7,-11.,0.));
#572=CARTESIAN_POINT('',(5.4,-12.3,20.));
#573=CARTESIAN_POINT('',(6.7,-11.,20.));
#574=CARTESIAN_POINT('',(5.4,-12.3,0.));
#575=CARTESIAN_POINT('Origin',(5.4,-12.3,0.));
#576=CARTESIAN_POINT('',(-5.4,-12.3,20.));
#577=CARTESIAN_POINT('',(5.4,-12.3,20.));
#578=CARTESIAN_POINT('',(-5.4,-12.3,0.));
#579=CARTESIAN_POINT('Origin',(-5.4,-12.3,0.));
#580=CARTESIAN_POINT('',(-6.7,-11.,20.));
#581=CARTESIAN_POINT('',(-5.4,-12.3,20.));
#582=CARTESIAN_POINT('',(-6.7,-11.,0.));
#583=CARTESIAN_POINT('Origin',(-6.7,-11.,0.));
#584=CARTESIAN_POINT('',(-6.7,-4.,20.));
#585=CARTESIAN_POINT('',(-6.7,-11.,20.));
#586=CARTESIAN_POINT('',(-6.7,-4.,0.));
#587=CARTESIAN_POINT('Origin',(-6.7,-4.,0.));
#588=CARTESIAN_POINT('',(-6.7,-4.,20.));
#589=CARTESIAN_POINT('',(4.,-4.,20.));
#590=CARTESIAN_POINT('Origin',(-1.38777878078145E-16,-3.02383173374927,
20.));
#591=CARTESIAN_POINT('',(0.,0.,0.));
#592=UNCERTAINTY_MEASURE_WITH_UNIT(LENGTH_MEASURE(0.01),#598,
'DISTANCE_ACCURACY_VALUE',
'Maximum model space distance between geometric entities at asserted c
onnectivities');
#593=UNCERTAINTY_MEASURE_WITH_UNIT(LENGTH_MEASURE(0.01),#598,
'DISTANCE_ACCURACY_VALUE',
'Maximum model space distance between geometric entities at asserted c
onnectivities');
#594=UNCERTAINTY_MEASURE_WITH_UNIT(LENGTH_MEASURE(0.01),#598,
'DISTANCE_ACCURACY_VALUE',
'Maximum model space distance between geometric entities at asserted c
onnectivities');
#595=(
GEOMETRIC_REPRESENTATION_CONTEXT(3)
GLOBAL_UNCERTAINTY_ASSIGNED_CONTEXT((#592))
GLOBAL_UNIT_ASSIGNED_CONTEXT((#598,#600,#601))
REPRESENTATION_CONTEXT('','3D')
);
#596=(
GEOMETRIC_REPRESENTATION_CONTEXT(3)
GLOBAL_UNCERTAINTY_ASSIGNED_CONTEXT((#593))
GLOBAL_UNIT_ASSIGNED_CONTEXT((#598,#600,#601))
REPRESENTATION_CONTEXT('','3D')
);
#597=(
GEOMETRIC_REPRESENTATION_CONTEXT(3)
GLOBAL_UNCERTAINTY_ASSIGNED_CONTEXT((#594))
GLOBAL_UNIT_ASSIGNED_CONTEXT((#598,#600,#601))
REPRESENTATION_CONTEXT('','3D')
);
#598=(
LENGTH_UNIT()
NAMED_UNIT(*)
SI_UNIT(.MILLI.,.METRE.)
);
#599=(
LENGTH_UNIT()
NAMED_UNIT(*)
SI_UNIT(.CENTI.,.METRE.)
);
#600=(
NAMED_UNIT(*)
PLANE_ANGLE_UNIT()
SI_UNIT($,.RADIAN.)
);
#601=(
NAMED_UNIT(*)
SI_UNIT($,.STERADIAN.)
SOLID_ANGLE_UNIT()
);
#602=SHAPE_DEFINITION_REPRESENTATION(#604,#607);
#603=SHAPE_DEFINITION_REPRESENTATION(#605,#608);
#604=PRODUCT_DEFINITION_SHAPE('',$,#610);
#605=PRODUCT_DEFINITION_SHAPE('',$,#611);
#606=PRODUCT_DEFINITION_SHAPE($,$,#14);
#607=SHAPE_REPRESENTATION('',(#383,#405),#595);
#608=SHAPE_REPRESENTATION('',(#384),#596);
#609=PRODUCT_DEFINITION_CONTEXT('part definition',#617,'design');
#610=PRODUCT_DEFINITION('210415-ZP','210415-ZP',#612,#609);
#611=PRODUCT_DEFINITION('210415','210415',#613,#609);
#612=PRODUCT_DEFINITION_FORMATION('',$,#619);
#613=PRODUCT_DEFINITION_FORMATION('',$,#620);
#614=PRODUCT_RELATED_PRODUCT_CATEGORY('210415-ZP','210415-ZP',(#619));
#615=PRODUCT_RELATED_PRODUCT_CATEGORY('210415','210415',(#620));
#616=APPLICATION_PROTOCOL_DEFINITION('international standard',
'automotive_design',2009,#617);
#617=APPLICATION_CONTEXT(
'Core Data for Automotive Mechanical Design Process');
#618=PRODUCT_CONTEXT('part definition',#617,'mechanical');
#619=PRODUCT('210415-ZP','210415-ZP',$,(#618));
#620=PRODUCT('210415','210415','Areta\X2\010D\X0\n\X\ED vlo\X2\017E\X0\k
a',(#618));
ENDSEC;
END-ISO-10303-21;
