                                                                        S      1
,,,6H700620,22HAutodesk Inventor 2021,7Hunknown,32,38,7,99,15,,1.,2,2HMMG      1
,1,0.08,15H20221010.085520,0.01,10000.,13HMrówczyńska,,11,0,15H2014081G      2
8.135616;                                                               G      3
     408       1                                       3        00000001D      1
     408       0               1       0                               0D      2
     124       2                                                00000000D      3
     124                       2       0                               0D      4
     308       4                                                00010200D      5
     308       0               1       0                               0D      6
     186       5                                                00010000D      7
     186            -153       1       0                               0D      8
     514       6                                                00010000D      9
     514                       2       1                               0D     10
     510       8                                                00010000D     11
     510            -153       1       1                               0D     12
     510       9                                                00010000D     13
     510            -153       1       1                               0D     14
     510      10                                                00010000D     15
     510            -153       1       1                               0D     16
     510      11                                                00010000D     17
     510            -153       1       1                               0D     18
     510      12                                                00010000D     19
     510            -153       1       1                               0D     20
     510      13                                                00010000D     21
     510            -153       1       1                               0D     22
     510      14                                                00010000D     23
     510            -153       1       1                               0D     24
     510      15                                                00010000D     25
     510            -153       1       1                               0D     26
     510      16                                                00010000D     27
     510            -153       1       1                               0D     28
     510      17                                                00010000D     29
     510            -153       1       1                               0D     30
     510      18                                                00010000D     31
     510            -153       1       1                               0D     32
     510      19                                                00010000D     33
     510            -153       1       1                               0D     34
     508      20                                                00010000D     35
     508                       1       1                               0D     36
     508      21                                                00010000D     37
     508                       1       1                               0D     38
     508      22                                                00010000D     39
     508                       1       1                               0D     40
     508      23                                                00010000D     41
     508                       1       1                               0D     42
     508      24                                                00010000D     43
     508                       1       1                               0D     44
     508      25                                                00010000D     45
     508                       1       1                               0D     46
     508      26                                                00010000D     47
     508                       1       1                               0D     48
     508      27                                                00010000D     49
     508                       1       1                               0D     50
     508      28                                                00010000D     51
     508                       1       1                               0D     52
     508      29                                                00010000D     53
     508                       1       1                               0D     54
     508      30                                                00010000D     55
     508                       3       1                               0D     56
     508      33                                                00010000D     57
     508                       3       1                               0D     58
     126      36                                                00010000D     59
     126       0               2       0                               0D     60
     126      38                                                00010000D     61
     126       0               2       0                               0D     62
     126      40                                                00010000D     63
     126       0               2       0                               0D     64
     126      42                                                00010000D     65
     126       0               2       0                               0D     66
     126      44                                                00010000D     67
     126       0               3       0                               0D     68
     126      47                                                00010000D     69
     126       0               2       0                               0D     70
     126      49                                                00010000D     71
     126       0               3       0                               0D     72
     126      52                                                00010000D     73
     126       0               3       0                               0D     74
     126      55                                                00010000D     75
     126       0               2       0                               0D     76
     126      57                                                00010000D     77
     126       0               3       0                               0D     78
     126      60                                                00010000D     79
     126       0               2       0                               0D     80
     126      62                                                00010000D     81
     126       0               2       0                               0D     82
     126      64                                                00010000D     83
     126       0               2       0                               0D     84
     126      66                                                00010000D     85
     126       0               2       0                               0D     86
     126      68                                                00010000D     87
     126       0               2       0                               0D     88
     126      70                                                00010000D     89
     126       0               2       0                               0D     90
     126      72                                                00010000D     91
     126       0               2       0                               0D     92
     126      74                                                00010000D     93
     126       0               2       0                               0D     94
     126      76                                                00010000D     95
     126       0               2       0                               0D     96
     126      78                                                00010000D     97
     126       0               2       0                               0D     98
     126      80                                                00010000D     99
     126       0               2       0                               0D    100
     126      82                                                00010000D    101
     126       0               2       0                               0D    102
     126      84                                                00010000D    103
     126       0               2       0                               0D    104
     126      86                                                00010000D    105
     126       0               2       0                               0D    106
     126      88                                                00010000D    107
     126       0               2       0                               0D    108
     126      90                                                00010000D    109
     126       0               3       0                               0D    110
     126      93                                                00010000D    111
     126       0               2       0                               0D    112
     126      95                                                00010000D    113
     126       0               3       0                               0D    114
     126      98                                                00010000D    115
     126       0               3       0                               0D    116
     126     101                                                00010000D    117
     126       0               3       0                               0D    118
     128     104                                                00010000D    119
     128       0    -153       5       0                               0D    120
     128     109                                                00010000D    121
     128       0    -153       6       0                               0D    122
     128     115                                                00010000D    123
     128       0    -153       4       0                               0D    124
     128     119                                                00010000D    125
     128       0    -153       4       0                               0D    126
     128     123                                                00010000D    127
     128       0    -153       4       0                               0D    128
     128     127                                                00010000D    129
     128       0    -153       4       0                               0D    130
     128     131                                                00010000D    131
     128       0    -153       5       0                               0D    132
     128     136                                                00010000D    133
     128       0    -153       4       0                               0D    134
     128     140                                                00010000D    135
     128       0    -153       4       0                               0D    136
     128     144                                                00010000D    137
     128       0    -153       7       0                               0D    138
     128     151                                                00010000D    139
     128       0    -153       4       0                               0D    140
     128     155                                                00010000D    141
     128       0    -153       3       0                               0D    142
     502     158                                                00010000D    143
     502                       4       1                               0D    144
     504     162                                                00010001D    145
     504                       8       1                               0D    146
     406     170                                                00000000D    147
     406                       1      15                               0D    148
     406     171                                                00000000D    149
     406                       1      15                               0D    150
     314     172                                                00000200D    151
     314                       1       0                               0D    152
     314     173                                                00000200D    153
     314                       1       0                               0D    154
408,5,0.,0.,0.,1.,0,1,149;                                             1P      1
124,1.,0.,0.,-6.55976666610026,0.,1.,0.,-6.92419828441983,0.,0.,       3P      2
1.,-50.;                                                               3P      3
308,0,9H-700620-1,1,7;                                                 5P      4
186,9,1,0,0,1,147;                                                     7P      5
514,12,11,1,13,1,15,1,17,1,19,1,21,1,23,1,25,1,27,1,29,1,31,1,         9P      6
33,1;                                                                  9P      7
510,119,1,1,35;                                                       11P      8
510,121,1,1,37;                                                       13P      9
510,123,1,1,39;                                                       15P     10
510,125,1,1,41;                                                       17P     11
510,127,1,1,43;                                                       19P     12
510,129,1,1,45;                                                       21P     13
510,131,1,1,47;                                                       23P     14
510,133,1,1,49;                                                       25P     15
510,135,1,1,51;                                                       27P     16
510,137,1,1,53;                                                       29P     17
510,139,1,1,55;                                                       31P     18
510,141,1,1,57;                                                       33P     19
508,4,0,145,1,1,0,0,145,2,0,0,0,145,3,0,0,0,145,4,1,0;                35P     20
508,4,0,145,5,1,0,0,145,6,0,0,0,145,7,0,0,0,145,2,1,0;                37P     21
508,4,0,145,8,1,0,0,145,9,0,0,0,145,10,0,0,0,145,6,1,0;               39P     22
508,4,0,145,11,1,0,0,145,12,0,0,0,145,13,0,0,0,145,9,1,0;             41P     23
508,4,0,145,14,1,0,0,145,15,0,0,0,145,16,0,0,0,145,12,1,0;            43P     24
508,4,0,145,17,1,0,0,145,18,0,0,0,145,19,0,0,0,145,15,1,0;            45P     25
508,4,0,145,20,1,0,0,145,21,0,0,0,145,22,0,0,0,145,18,1,0;            47P     26
508,4,0,145,23,1,0,0,145,24,0,0,0,145,25,0,0,0,145,21,1,0;            49P     27
508,4,0,145,26,1,0,0,145,27,0,0,0,145,28,0,0,0,145,24,1,0;            51P     28
508,4,0,145,29,1,0,0,145,4,0,0,0,145,30,0,0,0,145,27,1,0;             53P     29
508,10,0,145,17,0,0,0,145,14,0,0,0,145,11,0,0,0,145,8,0,0,0,145,      55P     30
5,0,0,0,145,1,0,0,0,145,29,0,0,0,145,26,0,0,0,145,23,0,0,0,145,       55P     31
20,0,0;                                                               55P     32
508,10,0,145,19,1,0,0,145,22,1,0,0,145,25,1,0,0,145,28,1,0,0,         57P     33
145,30,1,0,0,145,3,1,0,0,145,7,1,0,0,145,10,1,0,0,145,13,1,0,0,       57P     34
145,16,1,0;                                                           57P     35
126,1,1,0,0,1,0,-0.25,-0.25,0.75,0.75,1.,1.,2.,-10.,100.,-2.,         59P     36
-10.,100.,-0.25,0.75,0.,0.,0.;                                        59P     37
126,1,1,0,0,1,0,0.,0.,1.,1.,1.,1.,-2.,-10.,0.,-2.,-10.,100.,0.,       61P     38
1.,0.,0.,0.;                                                          61P     39
126,1,1,0,0,1,0,-0.25,-0.25,0.75,0.75,1.,1.,2.,-10.,0.,-2.,-10.,      63P     40
0.,-0.25,0.75,0.,0.,0.;                                               63P     41
126,1,1,0,0,1,0,0.,0.,1.,1.,1.,1.,2.,-10.,0.,2.,-10.,100.,0.,1.,      65P     42
0.,0.,0.;                                                             65P     43
126,1,1,0,0,1,0,-0.666666666666667,-0.666666666666667,                67P     44
0.333333333333333,0.333333333333333,1.,1.,-2.,-10.,100.,-5.,-7.,      67P     45
100.,-0.666666666666667,0.333333333333333,0.,0.,0.;                   67P     46
126,1,1,0,0,1,0,0.,0.,1.,1.,1.,1.,-5.,-7.,0.,-5.,-7.,100.,0.,1.,      69P     47
0.,0.,0.;                                                             69P     48
126,1,1,0,0,1,0,-0.666666666666667,-0.666666666666667,                71P     49
0.333333333333333,0.333333333333333,1.,1.,-2.,-10.,0.,-5.,-7.,        71P     50
0.,-0.666666666666667,0.333333333333333,0.,0.,0.;                     71P     51
126,1,1,0,0,1,0,-0.777777777777778,-0.777777777777778,                73P     52
0.222222222222222,0.222222222222222,1.,1.,-5.,-7.,100.,-5.,-2.5,      73P     53
100.,-0.777777777777778,0.222222222222222,0.,0.,0.;                   73P     54
126,1,1,0,0,1,0,0.,0.,1.,1.,1.,1.,-5.,-2.5,0.,-5.,-2.5,100.,0.,       75P     55
1.,0.,0.,0.;                                                          75P     56
126,1,1,0,0,1,0,-0.777777777777778,-0.777777777777778,                77P     57
0.222222222222222,0.222222222222222,1.,1.,-5.,-7.,0.,-5.,-2.5,        77P     58
0.,-0.777777777777778,0.222222222222222,0.,0.,0.;                     77P     59
126,1,1,0,0,1,0,-1.25,-1.25,-0.25,-0.25,1.,1.,-5.,-2.5,100.,-3.,      79P     60
-2.5,100.,-1.25,-0.25,0.,0.,0.;                                       79P     61
126,1,1,0,0,1,0,0.,0.,1.,1.,1.,1.,-3.,-2.5,0.,-3.,-2.5,100.,0.,       81P     62
1.,0.,0.,0.;                                                          81P     63
126,1,1,0,0,1,0,-1.25,-1.25,-0.25,-0.25,1.,1.,-5.,-2.5,0.,-3.,        83P     64
-2.5,0.,-1.25,-0.25,0.,0.,0.;                                         83P     65
126,1,1,0,0,1,0,-0.1,-0.1,0.9,0.9,1.,1.,-3.,-2.5,100.,-3.,10.,        85P     66
100.,-0.1,0.9,0.,0.,0.;                                               85P     67
126,1,1,0,0,1,0,0.,0.,1.,1.,1.,1.,-3.,10.,0.,-3.,10.,100.,0.,1.,      87P     68
0.,0.,0.;                                                             87P     69
126,1,1,0,0,1,0,-0.1,-0.1,0.9,0.9,1.,1.,-3.,-2.5,0.,-3.,10.,0.,       89P     70
-0.1,0.9,0.,0.,0.;                                                    89P     71
126,1,1,0,0,1,0,-0.25,-0.25,0.75,0.75,1.,1.,-3.,10.,100.,3.,10.,      91P     72
100.,-0.25,0.75,0.,0.,0.;                                             91P     73
126,1,1,0,0,1,0,0.,0.,1.,1.,1.,1.,3.,10.,0.,3.,10.,100.,0.,1.,        93P     74
0.,0.,0.;                                                             93P     75
126,1,1,0,0,1,0,-0.25,-0.25,0.75,0.75,1.,1.,-3.,10.,0.,3.,10.,        95P     76
0.,-0.25,0.75,0.,0.,0.;                                               95P     77
126,1,1,0,0,1,0,-0.4,-0.4,0.6,0.6,1.,1.,3.,10.,100.,3.,-2.5,          97P     78
100.,-0.4,0.6,0.,0.,0.;                                               97P     79
126,1,1,0,0,1,0,0.,0.,1.,1.,1.,1.,3.,-2.5,0.,3.,-2.5,100.,0.,1.,      99P     80
0.,0.,0.;                                                             99P     81
126,1,1,0,0,1,0,-0.4,-0.4,0.6,0.6,1.,1.,3.,10.,0.,3.,-2.5,0.,        101P     82
-0.4,0.6,0.,0.,0.;                                                   101P     83
126,1,1,0,0,1,0,0.75,0.75,1.75,1.75,1.,1.,3.,-2.5,100.,5.,-2.5,      103P     84
100.,0.75,1.75,0.,0.,0.;                                             103P     85
126,1,1,0,0,1,0,0.,0.,1.,1.,1.,1.,5.,-2.5,0.,5.,-2.5,100.,0.,1.,     105P     86
0.,0.,0.;                                                            105P     87
126,1,1,0,0,1,0,0.75,0.75,1.75,1.75,1.,1.,3.,-2.5,0.,5.,-2.5,0.,     107P     88
0.75,1.75,0.,0.,0.;                                                  107P     89
126,1,1,0,0,1,0,0.277777777777778,0.277777777777778,                 109P     90
1.27777777777778,1.27777777777778,1.,1.,5.,-2.5,100.,5.,-7.,         109P     91
100.,0.277777777777778,1.27777777777778,0.,0.,0.;                    109P     92
126,1,1,0,0,1,0,0.,0.,1.,1.,1.,1.,5.,-7.,0.,5.,-7.,100.,0.,1.,       111P     93
0.,0.,0.;                                                            111P     94
126,1,1,0,0,1,0,0.277777777777778,0.277777777777778,                 113P     95
1.27777777777778,1.27777777777778,1.,1.,5.,-2.5,0.,5.,-7.,0.,        113P     96
0.277777777777778,1.27777777777778,0.,0.,0.;                         113P     97
126,1,1,0,0,1,0,0.166666666666667,0.166666666666667,                 115P     98
1.16666666666667,1.16666666666667,1.,1.,5.,-7.,100.,2.,-10.,         115P     99
100.,0.166666666666667,1.16666666666667,0.,0.,0.;                    115P    100
126,1,1,0,0,1,0,0.166666666666667,0.166666666666667,                 117P    101
1.16666666666667,1.16666666666667,1.,1.,5.,-7.,0.,2.,-10.,0.,        117P    102
0.166666666666667,1.16666666666667,0.,0.,0.;                         117P    103
128,1,1,1,1,0,0,1,0,0,-100.001,-100.001,0.00100000000000477,         119P    104
0.00100000000000477,-4.001,-4.001,0.001,0.001,1.,1.,1.,1.,           119P    105
-2.001,-10.,100.001,-2.001,-10.,-0.001,2.001,-10.,100.001,2.001,     119P    106
-10.,-0.000999999999997669,-100.001,0.00100000000000477,-4.001,      119P    107
0.001;                                                               119P    108
128,1,1,1,1,0,0,1,0,0,-0.001,-0.001,100.001,100.001,-0.001,          121P    109
-0.001,4.24364068711929,4.24364068711929,1.,1.,1.,1.,                121P    110
-1.99929289321881,-10.0007071067812,-0.001,-1.99929289321881,        121P    111
-10.0007071067812,100.001,-5.00070710678119,-6.99929289321882,       121P    112
-0.001,-5.00070710678119,-6.99929289321882,100.001,-0.001,           121P    113
100.001,-0.001,4.24364068711929;                                     121P    114
128,1,1,1,1,0,0,1,0,0,-0.001,-0.001,100.001,100.001,-0.001,          123P    115
-0.001,4.501,4.501,1.,1.,1.,1.,-5.,-7.001,-0.001,-5.,-7.001,         123P    116
100.001,-5.,-2.499,-0.001,-5.,-2.499,100.001,-0.001,100.001,         123P    117
-0.001,4.501;                                                        123P    118
128,1,1,1,1,0,0,1,0,0,-0.001,-0.001,100.001,100.001,-0.001,          125P    119
-0.001,2.001,2.001,1.,1.,1.,1.,-5.001,-2.5,-0.001,-5.001,-2.5,       125P    120
100.001,-2.999,-2.5,-0.001,-2.999,-2.5,100.001,-0.001,100.001,       125P    121
-0.001,2.001;                                                        125P    122
128,1,1,1,1,0,0,1,0,0,-0.001,-0.001,100.001,100.001,-0.001,          127P    123
-0.001,12.501,12.501,1.,1.,1.,1.,-3.,-2.501,-0.001,-3.,-2.501,       127P    124
100.001,-3.,10.001,-0.001,-3.,10.001,100.001,-0.001,100.001,         127P    125
-0.001,12.501;                                                       127P    126
128,1,1,1,1,0,0,1,0,0,-0.001,-0.001,100.001,100.001,-0.001,          129P    127
-0.001,6.001,6.001,1.,1.,1.,1.,-3.001,10.,-0.001,-3.001,10.,         129P    128
100.001,3.001,10.,-0.001,3.001,10.,100.001,-0.001,100.001,           129P    129
-0.001,6.001;                                                        129P    130
128,1,1,1,1,0,0,1,0,0,-100.001,-100.001,0.00100000000000477,         131P    131
0.00100000000000477,-12.501,-12.501,0.001,0.001,1.,1.,1.,1.,3.,      131P    132
-2.501,100.001,3.,-2.501,-0.001,3.,10.001,100.001,3.,10.001,         131P    133
-0.000999999999997669,-100.001,0.00100000000000477,-12.501,          131P    134
0.001;                                                               131P    135
128,1,1,1,1,0,0,1,0,0,-0.001,-0.001,100.001,100.001,-0.001,          133P    136
-0.001,2.001,2.001,1.,1.,1.,1.,2.999,-2.5,-0.001,2.999,-2.5,         133P    137
100.001,5.001,-2.5,-0.001,5.001,-2.5,100.001,-0.001,100.001,         133P    138
-0.001,2.001;                                                        133P    139
128,1,1,1,1,0,0,1,0,0,-100.001,-100.001,0.00100000000000477,         135P    140
0.00100000000000477,-4.501,-4.501,0.001,0.001,1.,1.,1.,1.,5.,        135P    141
-7.001,100.001,5.,-7.001,-0.001,5.,-2.499,100.001,5.,-2.499,         135P    142
-0.000999999999997669,-100.001,0.00100000000000477,-4.501,0.001;     135P    143
128,1,1,1,1,0,0,1,0,0,-100.001,-100.001,0.00100000000000477,         137P    144
0.00100000000000477,-4.24364068711928,-4.24364068711928,0.001,       137P    145
0.001,1.,1.,1.,1.,1.99929289321881,-10.0007071067812,100.001,        137P    146
1.99929289321881,-10.0007071067812,-0.001,5.00070710678119,          137P    147
-6.99929289321881,100.001,5.00070710678119,-6.99929289321881,        137P    148
-0.000999999999997669,-100.001,0.00100000000000477,                  137P    149
-4.24364068711928,0.001;                                             137P    150
128,1,1,1,1,0,0,1,0,0,-5.001,-5.001,5.001,5.001,-10.001,-10.001,     139P    151
10.001,10.001,1.,1.,1.,1.,-5.001,-10.001,100.,5.001,-10.001,         139P    152
100.,-5.001,10.001,100.,5.001,10.001,100.,-5.001,5.001,-10.001,      139P    153
10.001;                                                              139P    154
128,1,1,1,1,0,0,1,0,0,-5.001,-5.001,5.001,5.001,-10.001,-10.001,     141P    155
10.001,10.001,1.,1.,1.,1.,5.001,-10.001,0.,-5.001,-10.001,0.,        141P    156
5.001,10.001,0.,-5.001,10.001,0.,-5.001,5.001,-10.001,10.001;        141P    157
502,20,2.,-10.,100.,-2.,-10.,100.,-2.,-10.,0.,2.,-10.,0.,-5.,        143P    158
-7.,100.,-5.,-7.,0.,-5.,-2.5,100.,-5.,-2.5,0.,-3.,-2.5,100.,-3.,     143P    159
-2.5,0.,-3.,10.,100.,-3.,10.,0.,3.,10.,100.,3.,10.,0.,3.,-2.5,       143P    160
100.,3.,-2.5,0.,5.,-2.5,100.,5.,-2.5,0.,5.,-7.,100.,5.,-7.,0.;       143P    161
504,30,59,143,1,143,2,61,143,3,143,2,63,143,4,143,3,65,143,4,        145P    162
143,1,67,143,2,143,5,69,143,6,143,5,71,143,3,143,6,73,143,5,143,     145P    163
7,75,143,8,143,7,77,143,6,143,8,79,143,7,143,9,81,143,10,143,9,      145P    164
83,143,8,143,10,85,143,9,143,11,87,143,12,143,11,89,143,10,143,      145P    165
12,91,143,11,143,13,93,143,14,143,13,95,143,12,143,14,97,143,13,     145P    166
143,15,99,143,16,143,15,101,143,14,143,16,103,143,15,143,17,105,     145P    167
143,18,143,17,107,143,16,143,18,109,143,17,143,19,111,143,20,        145P    168
143,19,113,143,18,143,20,115,143,19,143,1,117,143,20,143,4;          145P    169
406,1,7HBryła1;                                                     147P    170
406,1,12H700620-100:1;                                               149P    171
314,74.9019607843137,74.9019607843137,74.9019607843137,;             151P    172
314,52.9411764705882,52.9411764705882,52.9411764705882,;             153P    173
S      1G      3D    154P    173                                        T      1
